Song name
# A B C D E F G H I J K L M N O P Q R S T U V W X Y Z

Vangrail - Alles chords

Highlighted       Show chord diagrams
Artist: Vangrail
Song: Alles
Tuning: EADGBE

[intro]
----------------------------------------------------|
----------------------------------------------------|
----------------------------------------------------|
----------------------------------------------------| 2x
---3h6p3-----------3-3h6p3---------3----------------|
---------6-6-6-5-6---------6-6-5-6------------------|

[Riff1]
----------------------|
----------------------|
----------------------|
--8/10-8/10-8/10------|
--6/8--6/8--6/8-------|
----------------------|

[Verse1]
C5
Tien tegen een
                                     F5          Riff1
Dat je mij niet eens zou zien als ik voor je sta
C5
Tien tegen een
                                   F5           Riff1
Dat je niet eens merken zou als ik nu weg ga

[Pre-Chorus]
G5
Al moet ik op mijn knieŽn smeken
G#5
Tot de bodem gaan
A#5                  C5
Alles om het ijs te breken

[Chorus]
C5
Alles, wat ik nodig heb
C5
Alles, wat ik vraag
C5                        D#5
Alles, wat ik nodig heb vandaag
F5
Dat ben jij




Verse heeft altijd de zelfde akkoorden. Datzelfde geld voor de Chorus.
De bridge speel je op dezelfde manier als de Pre-Chorus.

Succes

Meer info op www.vangrailmusic.nl
Tap to rate this tab
# A B C D E F G H I J K L M N O P Q R S T U V W X Y Z