Song name
# A B C D E F G H I J K L M N O P Q R S T U V W X Y Z

Vanilla Muffins - Youre Just Ugly tab

Band: Vannila Muffins
Song: You're Just Ugly
Album: The Drug is Football
Tabbed by: sleaze.disease(my first tab!)


Intro:

e-----------------------------------------------------------------|
B-----------------------------------------------------------------|
G-11--------------------------------------------------------------|
D-11-----11-------------------------------------------------------|
A-9(x28)-11-------------------------------------------------------|
E--------9(x4)----------------------------------------------------|



Verse:

e-------------------------------------|
B-------------------------------------|
G-11----------8-----------------------|
D-11----11----8-----8-----9-----11----|   play twice
A-9(x2)-11----6(x2)-8-----9-----11----|
E-------9(x2)-------6(x2)-7(x4--------|9(x4)



Pre-chorus:

e------------------------------|
B------------------------------|
G------------------------------|
D-9----11----------------------|  play twice
A-9----11----------------------|
E-7(x8)-9(x8)------------------|


Chorus:

e----------------------------------------|
B----------------------------------------|
G-11----8--------------------------------|
D-11----8-----9-----11-------------------| play five times
A-9(x4)-6(x4)-9-----11-------------------|
E-------------7(x4)-9(x4)----------------|


Order:

Intro
Verse
Pre-chorus
Verse
Pre-chorus
Chorus
Shorten intro
Verse
Pre-chorus
Chorus
Pre-chorus
Solo - sorry I dont know the solo
Chorus

Playing along with the song helps when learning. Very fun to play. I dont know if this 
is right but it sounds like it.

http://www.vanillamuffins.ch/Home.html
Tap to rate this tab
# A B C D E F G H I J K L M N O P Q R S T U V W X Y Z