Song name
# A B C D E F G H I J K L M N O P Q R S T U V W X Y Z

Vanilla Sky - A Thousand Miles tab

tabbed by: DANIEL P. CELEMIN
         : PUERTO PRINCESA CITY,PALAWAN
song: A THOUSAND MILES
artist: VANILLA SKY
                            INTRO
e|--------7-6----------7-6--------------------------7-6-------------------------|
b|-7--4-5-----7---4h5------7---4h5--4---4h5--4--4h5------7--7---4h5-4-----------|
g|---------------------------------------------------------------------6--6h8-6-|
d|------------------------------------------------------------------------------|
a|------------------------------------------------------------------------------|
e|------------------------------------------------------------------------------|
   VERSE                         CHORUS
e|---------------------]----------------------]
b|---------------------]----------------------]
g|-9--11-8-------------]----9--11--8--9-------]
d|-9--11-8-------------]----9--11--8--9-------]
a|-7--9--6-------------]----7--9---6--7-------]
e|---------------------]----------------------]
Tap to rate this tab
# A B C D E F G H I J K L M N O P Q R S T U V W X Y Z