Song name
# A B C D E F G H I J K L M N O P Q R S T U V W X Y Z

Vankatoen - Doe Het Dan Zelf tab

Doe het dan zelf

Gespeeld in es met drop-d


Intro + Couplet + Refrein

	| Dmb5		| F		| Dmb5		| F		|

	| Dmb5		| F		| Dmb5		| F		|

Zo speel ik de akkoorden in het intro en refrein:

	D  A  D  G  B  E
Dmb5    0-----0---1--3----|
F    3--3--3---5- 6-------|

Couplet speel ik zo

	| Dmb5		| F		|

E    --------------------------------------------|
B    3---------------------3---------------------|
G    1---------------------2---------------------|
D    0--------------------------3----------------|
A    --------------------------------------------|
E    --------------------------------------------|

En zo

	| Dmb5		| F		|

E    --------------------------------------------|
B    --------------------------------------------|
G    --------------------------------------------|
D    ---0---0---------------3-------3------------|
A    5----------5-------------------3------------|
E    ----------------------3----3---3------------|


Tussenstuk is gespeeld met een bottleneck (glazen buisje

www.vankatoen.nl
Tap to rate this tab
 
# A B C D E F G H I J K L M N O P Q R S T U V W X Y Z