Song name
# A B C D E F G H I J K L M N O P Q R S T U V W X Y Z

Vanna - Country Boys Goddamn tab

Tabbed by:
Email:

Tuning:Drop C (CGCFAD)

D|-----------------------------------------------------------------------------|
A|-----------------------------------------------------------------------------|
F|-----------------------------------------------------------------------------|
C|-0-0-0--------------------------------1-2-3----------------------------------|
G|-0-0-0--------------------------------1-2-3----------------------------------|
C|-0-0-0-0-12\-0-11-12\-2-1-0-2-0-12\-0-1-2-3----------------------------------|

D|---------------------------------------------------------------------------|
A|-7--7--7--7--7--7--7--7----------------------------------------------------|
F|-10-10-10-10-10-10-10-10---------------------------------------------------|
C|---------------------------------------------------------------------------|
G|---------------------------------------------------------------------------|
C|---------------------------------------------------------------------------|Repeat how 
times its played

D|---------------------------------------------------------------------------|
A|---------------------------------------------------------------------------|
F|---------------------------------------------------------------------------|
C|---------------------------------------------------------------------------|
G|---------------------------------------------------------------------------|
C|3212-03212-3212-3212-------------------------------------------------------|

Heres most of it ill update it in a few days
| /  slide up
| \  slide down
| h  hammer-on
| p  pull-off
| ~  vibrato
| +  harmonic
| x  Mute note
===============================================================================
Tap to rate this tab
# A B C D E F G H I J K L M N O P Q R S T U V W X Y Z