Song name
# A B C D E F G H I J K L M N O P Q R S T U V W X Y Z

Vanna - The Alarm tab

-------------------------------------------------------------------------------
			     The Alarm - Vanna
-------------------------------------------------------------------------------
Tabbed by: Justin Bewley
Email: justinbewley@yahoo.com

Tuning: Drop B

C|------------------------------------------------------------------------------|
G#|-----------------------------------------------------------------------------|
E|--7-5-------------------------------------------------------------------------|
B|--7-5-5-0-3-0-5-3-0----------0---------3h5-0----------0--0---------3h5--------|
F#|-5-3-5-0-3-0-5-3-0------3h5-0------3h5----0------3h5-0--0------3h5-----------|
B|------5-0-3-0-5-3-0---3h5----0---3h5-------0---3h5----0--0---3h5--------------|

C|------------------------------------------------------------------------------|
G#|-----------------------------------------------------------------------------|
E|------------------------------------------------------------------------------|
B|--0--0----------0--0---------3h5-0--0----------0--0---------3h5---------------|
F#|-0--0------3h5-0--0------3h5----0--0------3h5-0--0------3h5------------------|
B|--0--0---3h5----0--0---3h5-------0--0---3h5----0--0---3h5---------------------|

C|------------------------------------------------------------------------------|
G#|-----------------------------------------------------------------------------|
E|------------------------------------------------------------------------------|
B|--0-3-2-0--------0-3-2-0----3h5--0-3-2-0--------0-3-2-0----3h5----------------|
F#|---------3h5p3----------3h5-------------3h5p3----------3h5-------------------|
B|------------------------------------------------------------------------------|

C|------------------------------------------------------------------------------|
G#|-----------------------------------------------------------------------------|
E|------------------------------------------------------------------------------|
B|--0--0----------0--0---------3h5-0--0----------0--0---------3h5---------------|
F#|-0--0------3h5-0--0------3h5----0--0------3h5-0--0------3h5------------------|
B|--0--0---3h5----0--0---3h5-------0--0---3h5----0--0---3h5---------------------|

C|------------------------------------------------------------------------------|
G#|-----------------------------------------------------------------------------|
E|------------------------------------------------------------------------------|
B|--0-3-2-0--------0-3-2-0----3h5--0-3-2-0--------0-3-2-0----3h5----------------|
F#|---------3h5p3----------3h5-------------3h5p3----------3h5-------------------|
B|------------------------------------------------------------------------------|

C|------------------------------------------------------------------------------|
G#|-----------------------------------------------------------------------------|
E|------------------------------------------------------------------------------|
B|--0--0----------0--0---------3h5-0--0----------0--0---------3h5---------------|
F#|-0--0------3h5-0--0------3h5----0--0------3h5-0--0------3h5------------------|
B|--0--0---3h5----0--0---3h5-------0--0---3h5----0--0---3h5---------------------|

C|--------------------|
G#|-------------------|
E|--------------------|
B|--0~~---------------|
F#|-0~~---------------|
B|--0~~---------------|

And that's as far as i got for now. This was my first tab and im positive that it's at 
95% right. Vanna forever <333

| /  slide up
| \  slide down
| h  hammer-on
| p  pull-off
| ~  vibrato
| +  harmonic
| x  Mute note
===============================================================================
Tap to rate this tab
# A B C D E F G H I J K L M N O P Q R S T U V W X Y Z