Song name
# A B C D E F G H I J K L M N O P Q R S T U V W X Y Z

Vanna - A Dead Language For A Dying Lady tab

Intro(real tab)
p=pull of string with finger
h=hammer on string
s=slide

 rythmn - guitar 1
e----------------------------------------------------------------------------|
B----------------------------------------------------------------------------|
G---------------4-----------------4---------------------4--------------------|
D----9-9---4h5h7-------9-9---4h5h7-----------9-9---4h5h7-----------555555557-|
A----9-9---------------9-9-------------------9-9----------999999999----------|
E----7-7---------------7-7-------------------7-7-----------------------------|


e---------------------------------------------------------------------------|
B---------------------------------------------------------------------------|
G---------------------------------------------------------------------------|
D7777777755555555-----------------------------------------------------------|
A---------------------------------------------------------------------------|
E---------------------------------------------------------------------------|


 lead - guitar 2
e----------------------------------------------------------------------------|
B----------------------------------------------------------------------------|
G----4-4---------------4-4---------------4-4----------2----------------------|
D----4-4---0h2h44------4-4---0h2h44------4-4---0h2h4h5--00000000444444445555-|
A----2-2---------------2-2---------------2-2---------------------------------|
E----------------------------------------------------------------------------|

e---------------------------------------------------------------------------|
B---------------------------------------------------------------------------|
G---------------------------------------------------------------------------|
D55554s20-------------------------------------------------------------------|
A---------------------------------------------------------------------------|
E---------------------------------------------------------------------------|

repeat 4 times

after last time begin to play this part that will lead into verse

guitar 1
e---------------------------------------------------------------------------|
B---------------------------------------------------------------------------|
G--777----------------------------------------------------------------------|
D-----9997779997755---------------------------------------------------------|
A---------------------------------------------------------------------------|
E---------------------------------------------------------------------------|

play 2 times

the second time guitar 1 plays the other part guitar 2 plays this part
guitar 2
e---------------------------------------------------------------------------|
B--------------------7------------------------------------------------------|
G---4h6p4h6h7p67s97h9-------------------------------------------------------|
D---------------------------------------------------------------------------|
A---------------------------------------------------------------------------|
E---------------------------------------------------------------------------|


not enough time to tab the rest but thats about as close to the song as anyone is going 
get on the internet as your going to get
Tap to rate this tab
# A B C D E F G H I J K L M N O P Q R S T U V W X Y Z