Song name
# A B C D E F G H I J K L M N O P Q R S T U V W X Y Z

Vanna - Shes A Real Battle Axe By Grayson Connelly tab

guitar 1
d-------------------------------------------------------|
a-------------------------------------------------------|
f-------------------------------------------------------|
c-------2-------------2h3h2-------------2----x-5-x-3----|
g-0-2-3---3---0-2-3-5-------5-----0-2-3------x-5-x-3----|
c--------------------------------------------x-5-x-3----|

guitar 2
d-------------------------------------------------------|
a-------------------------------------------------------|
f-------------------------------------------------------|
c-------7---------7h8h7h--------------7----x-5-x-3------|
g-5-7-8---8--5-7-8---------10---5-7-8---8--x-5-x-3------|
c------------------------------------------x-5-x-3------|
Tap to rate this tab
# A B C D E F G H I J K L M N O P Q R S T U V W X Y Z