Song name
# A B C D E F G H I J K L M N O P Q R S T U V W X Y Z

Vapnet - Kalla Mig tab

-------------------------------------------------------------------------------
			     Vapnet - Kalla mig
-------------------------------------------------------------------------------
Tabbed by: Andreas L
Email: swe.lillje@gmail.com

Tuning:

e|---2-2-2-2-2-2-2-----------------------------------------------------------|
B|---3-3-3-3-3-3-3-----------------------------------------------------------|
G|---3-2-3-3-2-2-2-----------------------------------------------------------|
D|---------------------------------------------------------------------------|
A|---------------------------------------------------------------------------|
E|---------------------------------------------------------------------------|

e|---10-10-10--9-9-9--7-7-7--------------------------------------------------|
B|---------------------------------------------------------------------------|
G|---------------------------------------------------------------------------|
D|---------------------------------------------------------------------------|
A|---------------------------------------------------------------------------|
E|---------------------------------------------------------------------------|

e|---2-2-2--5-5-5--2-2-2-----------------------------------------------------|
B|---2-2-2--2-2-2--2-2-2-----------------------------------------------------|
G|---2-2-2--2-2-2--2-2-2-----------------------------------------------------|
D|---------------------------------------------------------------------------|
A|---------------------------------------------------------------------------|
E|---------------------------------------------------------------------------|

e|---7-7-7--5-5-5--3-3-3-----------------------------------------------------|
B|---------------------------------------------------------------------------|
G|---------------------------------------------------------------------------|
D|---------------------------------------------------------------------------|
A|---------------------------------------------------------------------------|
E|---------------------------------------------------------------------------|
Tap to rate this tab
# A B C D E F G H I J K L M N O P Q R S T U V W X Y Z