Song name
# A B C D E F G H I J K L M N O P Q R S T U V W X Y Z

Varana - Lievame tab

Highlighted       Show chord diagrams
jajaja bno poez zta tab es  para priz flak tkm!!! ia lo zabz em k maz jajaja intentare 
a gdl es justo i necesario, eem k maz t xtraño un bueeen!!! i pz ezta es para ti! XD i em 
eres una streshita! jeje sta bn linda la knzion!!! :D

INTRO

1---------------------------------------------|
2---------------------------------------------|      GUITAR 1
3---------------------------------------------|
4-----------------------------7---------------|   x9
5-------------------9----10-------------------|
6---------------------------------------------|


1---------------------------------------------|
2--------12-----------------------------------|
3----14---------------------------------------|
4------------14------12--11-------------------|  x2    GUITAR 2
5---------------------------------------------|
6---------------------------------------------|

Verse 1

C              G
Si alguna vez no estoy aquí
C                    G
Quiero que sepas que siempre estás conmigo
C                    G
Y la distancia nunca larga será
        A
Porque yo......
C                      G
Me acerco al sol para sentirte aquí
C                     G
Si estoy contigo no importa que hay afuera
C                 G
Nuevos planetas haría junto a ti
        F         C           D/D7
Porque nada es igual si no estás


CHORUS
G  D  Em
Llevame
      A                           C             D
Y le pido a las estrellas que te vuelvas una de ellas
       G   A   Em       A
Porque siento que el destello de tus ojos
      C          D          Em
Me ilumina y me lleva mas alla

BRIDGE

its played like guitar 2 intro     or       Em  D  A  x2

C               G
Alguna vez tuve miedo a sentir
C                 G
Que dar un paso podría separarnos
C                G                    A
Era mi culpa lo puedo aceptar porque hoy....
C               G
Sin palabras lo puedo decir
C             G
Sin conocerte ya te había soñado
C                    G
Fue el destino que me hizo sentir
      F        C           D/D7
Dejo todo por ti..... llevame


CHORUS  x2

BRIDGE

CHORUS x2


www.myspace.com/varanaweb
Tap to rate this tab
# A B C D E F G H I J K L M N O P Q R S T U V W X Y Z