Song name
# A B C D E F G H I J K L M N O P Q R S T U V W X Y Z

Various Artists - New Blood The New Rock And Roll Vol 2 tab

Help us improve GuitareTab! Take a short survey!
 	

	NEW BLOOD: THE NEW ROCK AND ROLL VOL.2 (album)      tabbed by Superswan, April 2009
    	
	*I recommend copying this to the Notepad, setting the font size at 9, 
 	and the style as Lucida Console.
	
	
	\\\\\\\\\\\\\\\\\\\\\\\\\\\\\\\\\\\\\\\\\\\\\\\\\\\\\\\\\\\\\\\\\\\\\\
	
	NOTES: 
        All tracks are in standard tuning (EADGBe) unless otherwise noted.
	
	All chords are power chords (root-fifth) unless otherwise noted.
	
	Roman numerals contained herein refer to the chord position.
	For example, E(VII) = (low to high) x799xx
	
	The bends are normally whole-step, so don't get weak on us here.
	
	Remember that first position (I) can mean either the first
  	fret postion OR the "open" position. For example, 
  	E(I) = 022xxx and Bb(I) = x133xx

	TRACK LISTING (not all bands listed; I lost the album sleeve)

	1. Temptation Island - Love as Laughter        
	2. M. F. From Hell - The Datsuns        
	3. Street Survivor - The Flaming Sideburns        
	4. Kranxed Up, Really High - ?    
	5. She's a Libra - The Pattern        
	6. Jesus Died So We Could Ride -  ?      
	7. Dead Language of Love - The (International) Noise Conspiracy        
	8. Furious Desires - The Hotwires        
	9. Cryin' - The Von Bondies        
	10. Bad Feeling - The Beatings       
	11. Come Home to Me - Ten Bensons        
	12. Rock N Roll Motherfucker - ?       
	13. Statecontrol - The Hives        
	14. Miles Away - Yeah Yeah Yeahs        
	15. Do You Think of Him Still? - Vue        
	16. Driver - Beachbuggy        
	17. I'm Not Talking - The Mooney Suzuki        
	18. Primitive - Parkinsons        
	19. Whoyouknow - McLusky        
	20. Disguise Myself - Catheters        
	21. Gotta Make a Change - Los Nachos     
	22. You Bug Me - Modey Lemon  


        
        \\\\\\\\\\\\\\\\\\\\\\\\\\\\\\\\\\\\\\\\\\\\\\\\\\\\\\\\\\\\\\\\\\\\\\

	
	 NOTATION:
    
    	 b- bend           v- vibrato    ! = staccato/mmf attack
   	 h- hammer on      p- pulloff    pm- palm mute
    	 r- release* (a bend)             
           (*only  notated   when)                           
           (absolutely  necessary)                                                 
              
        / = slides, NOT altered-root chords                                                  


\\\\\\\\\\\\\\\\\\\\\\\\\\\\\\\\\\\\\\\\\\\\\\\\\\\\\\\\\\\\\\\\\\\\\\\\\\\\\\\\\\\\\\\\\\\\\\
	track 1 Temptation Island - Love as Laughter 
 
Intro/verse - G    C G C G C  G    F  G

Chorus  
[---------------------------------]
[---------------------------------]
[-7--------9---7---5---4-2--------]
[-7--------9---7---5---4-2--5-----]
[-5------7-7-5-5-3-3-2-2-0--5-----]
[---------------------------3-----]

Interlude - same as verse, with G(X) played throughout and well beyond

Outro - G   C G C G C  G    C G C G G

\\\\\\\\\\\\\\\\\\\\\\\\\\\\\\\\\\\\\\\\\\\\\\\\\\\\\\\\\\\\\\\\\\\\\\\\\\\\\\\\\\\\\\\\\\\\\\\\

	trk 2 - M. F. From Hell - The Datsuns  

Intro/Chorus Riff
[------------------------------------]
[------------------------------------]
[--6-----------(1/4 step bends)------]
[--6---------------------------------]
[--4---------2b-----------2b---------]
[----0-2-3-4-----0-2-3-4-------3-2---]

Verse- (last verse omit palm muted C#)
[-----------------------------]
[-----------------------------]
[--6----6-6-6-------4---------]
[--6----6-6-6-etc.--4---------]
[--4----4-4-4-------2---------]
[-----------------------3-2---]
       [pm-----]

                             
Bridge (at 1:03) -         
 E(I)    B  C#  (lick)     
 E(VII)  B  C#  (lick)     
 E(VII)  B  F#(IX)  C#     
 E(VII)  B  F#\\\          
                           

lick:
 [---17b---17v--14h17p14-----14b-----------]
 [------------------------17-------17--14--]
 [-----------------------------------------]
 [-----------------------------------------]
 [-----------------------------------------]
 [-----------------------------------------]



Solo (at 2:24) - uhh, the key is C# minor pentatonic... (C# E F# G# B) 
Let's give at least some of it a shot.
				
			  (2:29)
[--9---9---9--etc.----------------------------------------------]
[-12b-12b-12b-------12--9---------------------------------------] 
[--------------------------11-9-11-11b-11-9-11-9-11b--9---------]
[--------------------------------------------------------11v----] 
[---------------------------------------------------------------]
[---------------------------------------------------------------]


\\\\\\\\\\\\\\\\\\\\\\\\\\\\\\\\\\\\\\\\\\\\\\\\\\\\\\\\\\\\\\\\\\\\\\\\\\\\\\\\\\\\\\\\\\\\\\\

	trk 3- Street Survivor - The Flaming Sideburns

Intro/Verse - [--barre chords-----------]   [-power chords-]              
            - F#(II)      F# F# F# A A B     E(I)   E F(I) F


Chorus- (2 Gtrs. play chords w/ different ocvtaves) 
        
 B(XIV)  A(XII)  F#(IX)                                   
 B(XIV)  A(XII)  E(I) w/ pm. 

...with this at the tail end: 

low E string --0-2-0-2--

.

Solo at 1:49                                            
[-----------------------------------------------------------------------------------------------]
[-2---2-2-2-2--------2---2-----------------------------2---5--2---5--2---5----------------------]
[-4b--4-4-4-4r-2---2-4b--4r--2h4p2-------2b------2-4-2-4b-----4b-----4b-----4-2------2-4-2------]
[----------------4-----------------4-2-4-----4v---------------------------------4---------------]
[-----------------------------------------------------------------------------------------------]
[-----------------------------------------------------------------------------------------------]


 (1:57) 					           		    (2:02)
[-------------------------------------------------------------------------------]
[--2--2-2-2-2-2-2-2-2---7--7-7-7-7-7-7-7--12b---10------------------------------]
[--4b-4-4-4-4-4-4-4-4---9b-9-9-9-9-9-9-9-----------11-9----9--------------------]
[-------------------------------------------------------11---11--9b---7-9-7-----]
[------hold bends-----------------------------------------------------------9---]
[-------------------------------------------------------------------------------]



   ( the first bend )
   (raises 1.5 steps)						    (2:09)
[---7----7---------------------------------------------------------------------]
[--/9b---9r--7----------------------------7------7-----------------------------]
[--------------9br---7-9br------7v--7-9-7-9b---7-9b---7-9-7--9b-7---7---7-9-0--]
[---------------------------7-9-----------------------------------9------------]
[-In-this-measure-rhythm-plays-Verse-riff-in-B-(B  DE  A  A# B)----------------]
[------------------------------------------------------------------------------]



[----------------------------------------------------------------------]
[-2--2-2-2-2--------2-------------------10--10--10--10---10------------]
[-4b-4-4-4-4r-2---2-4b-4---2v-----4-X---12b-12b-12b-12b-----11-9--11v--]
[---------------4--------4------4--------------------------------------]
[----------------------------------------------------------------------]
[----------------------------------------------------------------------]



\\\\\\\\\\\\\\\\\\\\\\\\\\\\\\\\\\\\\\\\\\\\\\\\\\\\\\\\\\\\\\\\\\\\\\\\\\\\\\\\\\\\\\\\\\\\\\\\

	trk 4- Kranxed Up, Really High 

Intro/Verse - C#  E(VII) F#(IX)  
              B   E C#     B  


[---lick during intro----------------------------------------------------------------------]
[------------------------------------------------------------------------11b---------------]
[---------------------------------------------{first}-----------9b----9--11b--9-11-9b------]
[---------------------------------------------{half }------9-11----11------------------11v-]
[---------7-9-9b-9v---9brbrbrb--9---7b--------{again}--11v---------------------------------]
[--9-9---------------------------------9-9-7-7---------------------------------------------]
  {---first half---}



Pre-chorus (0:48)- A B

Chorus (at 0:54) - C#   E   F#   A(XII)


Intro lick also appears at the verse at 1:06
with this added to the end:
[----------------------]
[----------------11b---]
[--------9-11br--11b---]
[---(11)---------------]
[----------------------]
[----------------------]


Bridge (at 1:36) -   E  F#  C#   
       (and at 1:48) A  B
      
				     
	  At 1:39:              
[----------------------[  
[----------------------[                                                 
[-9b-9-9-etc.----9-----[
[-------------11---11v-[
[----------------------[
[----------------------[


at 1:45:

[--------------------------------------------------------------------]	
[-11b----------------------------------------------------------------]
[-11b-9------9b-----------------9-11b-r----11v----11b--11---9--------]
[-------11------11--11v----11-----------------------------------11v--]
[--------------------------------------------------------------------]
[--------------------------------------------------------------------]



 Solo (at 2:01, reappears  in  similar )
      (form at 2:55 w/ obscuring vocals)                (2:07)  
[--------------------------------------------------------------------------------------------------]
[--11b-11-11-etc.-----------------------------11---------------------------------------------------]
[--11b-11-11-------9----9--(play that )-----9-11-9-------11b--9----------------9b-9-9r-----9-----9-]
[--------------------11----(run three )--11--------11------------11v---11-9-11----------------11---]
[--------------------------(more times)------------------------------------------------------------]
[--------------------------------------------------------------------------------------------------]
                 
                            (2:12)   				   (2:18)
[-------------------------------------------------------------------------------------------------]
[-------12--------------------------------------------------------------11b-----------------------]
[--11b-----11br---11----9b------------------------9b-9b-9b-9b------9-11-11b----11--9--------------]
[--------------------11-----11-11v--------9---11--------------11v----------\----------11v-11v-11v-]
[------------------------------------9-11---------------------------------(gradual)---------------]
[-------------------------------------------------------------------------------------------------]


								         (2:24)
[-------------------------------------------------------------------------------------------------]
[-----------12----------------12------------------------------------------------------------------]
[--9-11-11b----11r---9-11-11b----11r---9-11-11b-11b-11b-r---9-11-9b-------------------------------]
[-------------------------------------------------------------------11-9-11v------9-11-11---9-11--]
[-------------------------------------------------------------------------------------------------]
[-------------------------------------------------------------------------------------------------]


                                                 (  these last  )
						 (six notes  I  )
						 (just threw in.)
                                                  
[-------------------------------------------------/------------\-----]
[----------------------------11-11b-11-11-11-11r---------------------]
[-9b----------------9b-----9-11-11b-11-11-11-11r-9----11b-11-9-------]
[----11---9-11-9-11----11----------(hold)----------11----------11v---]
[--------------------------------------------------------------------]
[--------------------------------------------------------------------]


\\\\\\\\\\\\\\\\\\\\\\\\\\\\\\\\\\\\\\\\\\\\\\\\\\\\\\\\\\\\\\\\\\\\\\\\\\\\\\\\\\\\\\\\\\\\\\\\

	trk 5 -She's a Libra - The Pattern

 Intro riff, fast and 
 sloppy, like fine       Verse: quick chord stabs:   Chorus:    Post Chorus: (0:58)
 garage rock should be:    (0:13)  (0:26)  (0:29)    (0:31)     w/ soft A  D  E(VII) 
[----------------------]---------------------------]----------]---------------------------]
[----------------------]-----5-------7------5------]----------]---------------------------]
[-6--6---0--5/7-5--0---]-----6-------7------6------]----------]---------------------------]
[-7--7---0--5/7-5--0---]-----7-------7------7------]--5--4----]--7--7---------5-5h7--7----]
[-7--7---0--3/5-3--0---]-----7-------5------7------]--5--4----]---------4-5-7-------------]
[-5--5-----------------]-----5--------------5------]--3--2----]---------------------------]
 ^bassline mimics this^      
                                                                


 Outro bassline, with A stabs again:
[--------------------------------------]
[--------------------------------------]
[--------------------------------------]
[--------------------------------------]
[--------------------------------------]
[-5---5-3-5---5-3-5---5-3/8-10-8--3--5-]


\\\\\\\\\\\\\\\\\\\\\\\\\\\\\\\\\\\\\\\\\\\\\\\\\\\\\\\\\\\\\\\\\\\\\\\\\\\\\\\\\\\\\\

	trk 6- Jesus Died So We Could Ride

Intro - D   A  E(VII)  B A   (e)------------  power   e------------------
                             (b)-12B---10---  chords  b------------------
                             (g)------------  again   g-0h2p0h2p0--etc.--

Verse - p.m. intro chords

Chorus (0:23)- D  E  F#(IX)  E  D
               D  E  A       G#(IV)  F#(II)

Post-Chorus (0:46)- D! D! D! etc.


[---------------------------]----<--hold bend->----------------------------]
[---------------------------]--12b--12-12-12-12r-10----10------------------]
[--11b-11b-11brp9----9b-----]-----------------------11----11-9----9b-------]
[-----------------11----11--]----------------------------------11------11v-]
[---------------------------]----------------------------------------------]
[---licks with post-chorus--]----------------------------------------------]


Solo (1:42-2:04)


\\\\\\\\\\\\\\\\\\\\\\\\\\\\\\\\\\\\\\\\\\\\\\\\\\\\\\\\\\\\\\\\\\\\\\\\\\\\\\\\\\\\


	trk 7 - Dead Language of Love - The (International) Noise Conspiracy

 Intro/Verse - B(VII) A(V) B   B A B etc.  E(VII)   G(X) E
    
 Post-Verse, w/ lots of effects and gtr. noodling 
 (0:44) - (completely a guess) - E(VII)   G  A  B D
                                 (ascend)
 Breakdown - B B\ etc.   
             

\\\\\\\\\\\\\\\\\\\\\\\\\\\\\\\\\\\\\\\\\\\\\\\\\\\\\\\\\\\\\\\\\\\\\\\\\\\\\\\\\\

	trk 8 - Furious Desires - The Hotwires         

	(drop D tuning: DADGBe)


Intro (1st theme, until 0:40)  ...and this     Lick introducing 2nd theme (0:40)
[-------------------------------]-with the---]------------------------------------]
[-------------------------------]--intro-----]-----15-----------------------------]
[-------------------------------]------------]--14b---14br-14-12------------------]
[----2---2---2---2-----------0--]-0--2-------]------------------------------------]
[-------------------------------]-0--2-------]------------------------------------]
[--2---2---2---2---2--etc.-0----]-0--2-------]------------------------------------]

                                                                 
                                                                 ...along with
2nd Theme (0:40)  Brief Interlude (0:52)     3rd theme... (0:59)    LOUD, slow notes: 
[--------------]----------------------------]-------------------]---------------------]
[--------------]----------------------------]-------------------]---------------------]
[--------------]----------------------------]-------------------]-----------9---------]
[-2----7--5--2-]--------5-------------------]-------------------]--9--7--------7--5---]
[-2----7--5--2-]-7--7-7---7-5-7---7-0-------]-------------------]--------7----------7-]
[-2----7--5--2-]-----------------------5-5--]-2-2-0-2-2-2-0-2---]---------------------]
                                              pm.....]


 4th theme (1:11-1:33) with 2nd gtr. accentuating chords, plus this lick at 1:32:
[-------------------------------------------------]---------------------------------]
[-------------------------------------------------]--------15-----15----------------]
[--7--7-7------------------7-----7----------------]----14b----14b----14-12v---------]
[--7--7-7-etc.--7----------7--7--7--7--2-2-etc.---]---------------------------------]
[--5--5-5-------7----------5--7--5--7--2-2--------]---------------------------------]
[---------------7---etc.------7-----7--2-2--------]---------------------------------]
             {w/ pm}.



 Reintroduce 2nd theme (at 2:25). 
 
Then at 2:34...         Brief solo (3:11)                                     Outro (3:17)
[----------------------]----------------------------------------------------]----------------]
[----------------------]-8h10-(4 more times)-8--------------8h10--8---------]----------------]
[----------------2-----]-----------------------9--9---7-------------9---7---]----------------]
[-2--------------2-----]----------------------------------------------------]----------------]
[-2--2-2-etc.----0--0--]----------------------------------------------------]-7-5-2----0-2---]
[-2--2-2------------0--]----------------------------------------------------]-7-5-2----0-2---]
    {pm...} 


[-------------------------------]
[-------------------------------]
[---------0-2-------------------]
[-----0-2------0-2-e--etc.--2---]
[-0-2-----------------------2---] 
[---------------------------2---] 


\\\\\\\\\\\\\\\\\\\\\\\\\\\\\\\\\\\\\\\\\\\\\\\\\\\\\\\\\\\\\\\\\\\\\\\\\\\\\\\\\\\\\\\\\\\\\\\\


	trk 9 - Cryin' - The Von Bondies			      
 							               (6 string)
 Intro (bass gtr.)                                                     (electric)
								       (w/ dist.) Pre-Verse
[----------------------------------------------------------------------]------------------------]
[----------------------------------------------------------------------]------------------------]
[------------------------------(play three)----------------------------]--5---------2-----------]
[---2-0--2-0---0-----2-0-2--0--(more times)----2--0--------------------]--5---------2-----------]
[------------2---------------------------------------2--0--------0-----]--3---------0-----------]
[-0---------------0-------------------------0--------------3-3-------3-]------------------------]
									  C  	    A   


	   
       (the beat gets tricky )
       ( at 0:27,  but  the  )   
 Verse ( chords stay the same)   Break (0:59-1:25) 
[--0----------3-----------------]-----------------------------------------------]
[--0----------3-----------------]--------------------------(play )--------------]
[--1----------4-----------------]--------2--0--------------(first)--------------]
[--2----------5-----------------]------2---------------0---(half )--------0--2--]
[--2----------5-----------------]----2-------------2-2---0------------2-2-------]
[--0----------3-----------------]-0-------------3-------------------3-----------]
   Emaj       Gmaj		 (I'm not wholly confident in this one, I suck)


The solo is too atonal to tab. (Excuses, excuses.) 
As if you cared about it anyway.

\\\\\\\\\\\\\\\\\\\\\\\\\\\\\\\\\\\\\\\\\\\\\\\\\\\\\\\\\\\\\\\\\\\\\\\\\\\\\\\\\\\\\\\\\\\\\\\\


	trk 10 - Bad Feeling - The Beatings

 Intro - (w/ distorted  bass gtr.)
         (playing constant A note)   At 0:33                       
[----------------------------------]-----------------------------]
[----------------------------------]-----------------------------]
[----------------------------------]--5--5-5---4---4-4--4-4-4-4--]
[------5---5--5---4---4-4---4-4-4--]-----------------------------]
[-(0)------------------------------]-----------------------------]
[-----------------------------/----]-----------------------------]
           (w/ A note at 0:30)



				  
Chorus (0:54) - C  B  D  A      
                C  B  D         
                         

  Interlude (1:49)
[---------------------------------------------------------------]
[-------------------------------A-note-should-ring--------------]
[------------------------------/--------------------------------]
[------------8---10----10--10-7-------7------7-----7----7-------]	
[-------8-10---------------------10-------10-----9----9-----7---]
[--8-10---------------------------------------------------------]
				 (<--lazily------>)              (<-- -descending riff- -- ->) 


									   
[-----------------------------------------------------------------------]  Then at 2:09 -
[--( then)--------------------------------------------------------------]  C(VIII) 
[--(lazy )-----------------------------------------------(descending)---] 
[--(part )-(10)b--7-7---7-10b---7-7---7-10b---7-7---7----(riff again)---]
[--(again)--------------------------------------------------------------]
[-----------------------------------------------------------------------]



 Solo (2:31)
[---------------------------------]
[---------------------------------]
[--10b--10-10--7------------------]
[----------------10---similie-----]
[---------------------------------]
[---------------------------------]


\\\\\\\\\\\\\\\\\\\\\\\\\\\\\\\\\\\\\\\\\\\\\\\\\\\\\\\\\\\\\\\\\\\\\\\\\\\\\\\\\\\\\\\\\\\\\\\\\\


	trk 11 - Come Home to Me - Ten Bensons

Intro/Verse          At 0:29, fuzz gtr. plays this:
[------------------]---------------------------------------------------------------------------]
[--(with B   D\B)--]---------------------------------------------------------------------------]
[--(  at 0:04   )--]-14b---14v---12----------------------12-----14b\----------------12---------]
[------------------]----------------14----12v-----12--14----14--------------12--14-----14(\)---]
[------------------]-----------------------------------------------------------------------\---]
[-----7--7-10b-7---]------------------------------------------------------------------------\--]
           /                                           !	                        !(2nd time)
 (1/2 step bend)



Solo at 1:17, w/ wah pedal fully depressed            (slow bend)                !
[--------------------------------------------------------------------------------17---------------]
[-17b---17-15-14----------------------------------------17--b---------15-17--b-------17br-v-------]
[----------------16-14-16v----------14----16p14-16v--------------16v------------------------------]
[-----------------------------14h16----16---------------------------------------------------------]
[-------------------------------------------------------------------------------------------------]
[-------------------------------------------------------------------------------------------------]


                      


                     
            !         (1:29, wah pedal released some)
[------------------------------------------------------------------------------------------------]
[-----------------------------------------------10------------------------------------------10---]
[--------14-16-16p14-16v--\-----9brp7----7-9b------9-9brp7---7--9b-9-9brbv----9b--r----7-9b------]
[--14h16------------------------------9--------------------9-------------------------9-----------]
[------------------------------------------------------------------------------------------------]
[------------------------------------------------------------------------------------------------]
			        *(bending technique important here, mostly 1/2 step)


[
--------------------------------------------------------]
[-------------------------------------------------------]
[--9-9b-rp7---7--9-b-r--7-9-9b--7--6-7-6---4-----4/16\--]
[----------9--------------------------------------------]
[-------------------------------------------------------]
[-------------------------------------------------------]
[-------------------------------------------------------]


\\\\\\\\\\\\\\\\\\\\\\\\\\\\\\\\\\\\\\\\\\\\\\\\\\\\\\\\\\\\\\\\\\\\\\\\\\\\\\\\\\\\\\\\\\\\\\\\\

	trk 12 - Rock N Roll Motherfucker

	      Intro (fast, w/ D! slide-downs, starting at :06)   And at 0:15...
[------------[--------------------------------------------------]---------------------------------]
[---7b-------[--------------------------------------------------]---------------------------------]
[---7b-------[----------------------------------7---9-9-7-9-9---]-7b----------(play 2)-9b-9b etc.-]
[------------[-12---9-9-9-9-9-9-----------------7---9-9-7-9-9-9-]-----9-9-9-9-(times )------------]
[-(gradual)--[-12---9-9-9-9-9-9--(play twice)---5---7-7-5-7-7-9-]-------------( more )------------]
[------------[-10---7-7-7-7-7-7--(---more---)-----------------7-]---------------------------------]
               D    B                           D   E   

    
                                                               Solo at 1:28, with unison   
 Post-Verse                      Post-Verse       Pre-solo     bends played several times each.
 Part 1 (0:39,0:44)              Part 2          at 1:23      (B  E  B played underneath) 
                                 
[----------------------------[------------------]------------]-------------------------------------]
[----------------------------[------------------]------------]-7--7-------12--12-------19------18v-]
[-7-------------------9-9-9--[------------------]-11--11\----]-9b-9b-etc.-14b-14b-etc.-21b-etc.----]
[-7-----7--0-( and )--9-9-9--[-9---9-11-9-9-11--]-11--11\--7-]-------------------------------------]
[-5--0--7--0-(again)--7-7-7--[-9---9-11-9-9-11--]--9---9\--7-]-------------------------------------]
[----0--5--------------------[-7---7--7-7-7--9--]----------5-]-------------------------------------]



 Outro recalls Post-Verse [-------------------]
 Pt.1, ending  w/ this:   [-------------------]
                          [-------------------]
                          [-------------------]
                          [-9---8-7-----------]
                          [---------10-9-8-7--]

\\\\\\\\\\\\\\\\\\\\\\\\\\\\\\\\\\\\\\\\\\\\\\\\\\\\\\\\\\\\\\\\\\\\\\\\\\\\\\\\\\\\\\\\\\\\\\\\\

	trk 13 - Statecontrol - The Hives

 Intro     
 (bass gtr. stays with G note) 
[-------------------------------------------------------------------------]
[-------------------------------------------------------------------------]
[-------------------------------------------------------------------------]
[-------------------------------------------------------------------------]
[---------------------------------------------------10-10-10-10-10-10-10\-]
[-3-3-3-3-3-3-3-3-6-6-6-6-6-6-6-6-8-8-8-8-8-8-10-10-----------------------]
  G               Bb              C           D     G

 
Verse - bass gtr carries the following riff, with an electric guitar 
playing -  D# C
 
 G[-----------------------------]
 D[------------1---------1-1----]
 A[----1-2-3------3--x-x------3-]
 E[--3--------------------------]
                         

 Post-Verse (0:29)
[-------------------------]
[-------------------------]
[--(bass)-----------------]
[-------------------------]
[---1-2-3----------1-2-3--]
[-3--------------3--------]


Bridge (1:06) - D# C
                D# C
                D# C
                G

\\\\\\\\\\\\\\\\\\\\\\\\\\\\\\\\\\\\\\\\\\\\\\\\\\\\\\\\\\\\\\\\\\\\\\\\\\\\\\\\\\\\\\\\\\\\\\\\\\

	trk 14 - Miles Away - Yeah Yeah Yeahs

Intro - (  bass gtr. )--> A     G E(I)    (Gtr. enters at)   
        (plays roots )                    (  0:30 with   ) --> C  E(VII) D  E
        (w/ slight pm)                    ( power chords )     C  E      D


Chorus (0:40) -  E(XII)\G   F(XIII)\F(I)    A   


End with: 
[-5---5---------------
[-X---X---etc.--------
[-6---5---------------
[---------------------
[---------------------
[---------------------

\\\\\\\\\\\\\\\\\\\\\\\\\\\\\\\\\\\\\\\\\\\\\\\\\\\\\\\\\\\\\\\\\\\\\\\\\\\\\\\\\\\\\\\\\\\\\\\


	trk 15 - Do You Think of Him Still? - Vue

 Intro/Chorus - E(VII, w/ open 6 string)  D  
                              
 Verse - B B   D  A  
 
Improvisational solo w/ 2 gtrs. at 2:00, mostly bending 3 str. 9 fret, then becomes 
very fuzzy at 2:09. Similar and but more chaotic solo appears during outro.
 

\\\\\\\\\\\\\\\\\\\\\\\\\\\\\\\\\\\\\\\\\\\\\\\\\\\\\\\\\\\\\\\\\\\\\\\\\\\\\\\\\\\\\\\\\\\\\\\\\

	trk 16 - Driver - Beachbuggy

	"Is it true that with your new mechanical arm you can shift gears in less
	than a twentieth of a second? Would you care to comment on that?"   "No."

 Intro/Verse -  (F#'s  played  by  two  gtrs,)            Verse (altered) 
 (until 0:40)   (other chords one gtr. w/ pm.)            (0:40)
[--------------------------------------------------------]-----------------------------]
[--------------------------------------------------------]-----------------------------]
[--------------------------------------------------------]-----------------------------]
[------------3-3-3-3-3-3-3---------------4-4-4-4-4-4-4---]-----------4-4---2---4-------]
[-4-4--etc.--1-1-1-1-2-2-2-0--4-4-etc.---2-2-2-2-3-3-3-0-]--4-4-etc.-2---------2--0----]
[-2-2----------------------0--2-2----------------------0-]--2-2-------------------0----]



 At 1:08, unison        
 bends  are  played     
 with each F# chord   Solo at 1:23 (reappears at 2:17 slightly altered)
[--------------------]-----------------------------------------------------------------]
[--2---2---2--2------]------5--5------2--2------7--7------3--3------5--5----2--2-2-2---]
[--4b------4--4r-----]------7b-7r-----4b-4r-----9b-9r-----5b-5r-----7b-7r---4b-----4r--]
[--(<- hold ->)------]--4-------------------4-------------------4----------------------]
[--------------------]--2--------4----------2---------5---------2---------4------------]
[--------------------]-----------2--------------------3-------------------2------------]
                       (Chords played underneath)   

  2nd solo interupption 
  at 2:29; use a pattern 
  similar to this for 
  the outro: 
[-------------------]
[--2--5-5--2--5-2---]
[--4b-->r--4b---4r--]
[-------------------]
[-------------------]
[-------------------]


\\\\\\\\\\\\\\\\\\\\\\\\\\\\\\\\\\\\\\\\\\\\\\\\\\\\\\\\\\\\\\\\\\\\\\\\\\\\\\\\\\\\\\\\\\\\\\\\\\

	trk 17 - I'm Not Talking - The Mooney Suzuki

Intro - This gtr. sounds like it's played with a pitch shifter,
        a device that copies a played note, then raises/lowers  
        that copy a certain degree, making it sound like 2 notes.


 (Tremelo pick)     C riff: 
 (F & C chords)     play fast 2 times)         F riff, same way...   (at 0:20)
[-------------]------------------------------]----------------------]-------------------]
[-------------]------------------------------]----------------------]----------5--------]
[---2------9--]------------------------------]----10-10p8----etc.---]--5---4---5--------]
[---3-----10--]----10-10p8----8---------8-10-]------------10--------]--6---5---5--------]
[---3-----10--]------------10-----10(p8)-----]--8-------------------]--6---5---3--6--5--]
[---1------8--]--8------------------/--------]----------------------]--4---3------4--3--]
    F      C                (pulloff  not )                            G#  G   C  !  !
                            (always played)

  Verse (0:26)                                  (0:35)          brief solo:
[----------------------------------------------]-------------------------------------------]
[--------------------------------------(play )-]-------------------------------------------]
[--5------------10--10p8----8-----8-10-(three)-]-------------------------------------------]
[--5----6-5--------------10----10------( more)-]--10--(play this C)-----15b--15-15p13------]
[--3----6-5---8------------------------(times)-]--10--(during--the)-------------------15---]
[-------4-3------------------------------------]--8---(brief-solo-)------------------------]
        ! !                                       !


Sorry, the solos at 0:52 and 1:32 are outta control. 

Outro - F and C from intro, w/ feedback.

\\\\\\\\\\\\\\\\\\\\\\\\\\\\\\\\\\\\\\\\\\\\\\\\\\\\\\\\\\\\\\\\\\\\\\\\\\\\\\\\\\\\\\\\\\\\\\\\\

	trk 18 - Primitive - The Parkinsons

 Intro						      (Chuck Berry style)
[--3v---------------------------------------3v--------/3-3-3-/3-3-3-/3-3--------6-3--------------]
[--3v---------------------------------------3v--------/3-3-3-/3-3-3-/3-3--etc.-------6-3---------]
[-------5--3b--0-3-5--(5)p3p0--3-5---3-5-3-----------------------------------------------5-3-----]
[--------------------------------------------------------------------------------------------5---]
[------------------------------------------------------------------------------------------------]
[------------------------------------------------------------------------------------------------]



 Verse (0:16)						Chorus (0:31, w/ vibrato effect)
[--------------------------------------15---------15--]--------------------]
[--------------------------------12--------12---------]--------------------]
[--------------------------------14b-------14brbrb----]--------------------]  Solo at 1:02
[--5-5---x---x--5--5-etc.--7--------------------------]--------2--5---5----]
[--5-5---x---x--5--5-------7-(2)----------------------]--2--5---------5----]
[--3-3--(0)-(0)-3--3-------5--0-----------------------]---------------3----]



 Outro at 1:44 w/ 2 gtrs.
[--------------------------------------------------------3---]
[------------------------------------------------------3-----]
[----------3b---5brp3-5-----5brp3-5brp3--etc.--------4-------]
[-----3-5---------------5--------------------------5---------]
[--5---------------------------------------------------------]
[------------------------------------------------------------]



\\\\\\\\\\\\\\\\\\\\\\\\\\\\\\\\\\\\\\\\\\\\\\\\\\\\\\\\\\\\\\\\\\\\\\\\\\\\\\\\\\\\\\\\\\\\\\\\

	trk 19 - Whoyouknow - McLusky 

Intro/1st Verse- E E G G# 		Breakdown - (softly, w/  fast) - B    A G E
                 E E G G#                           (delay and reverb)
                 D(V)/E(VII)  E(I)


2nd Verse (0:51) - E    B    (A#) A  G
                   E E G G#
		   E E G G# E

\\\\\\\\\\\\\\\\\\\\\\\\\\\\\\\\\\\\\\\\\\\\\\\\\\\\\\\\\\\\\\\\\\\\\\\\\\\\\\\\\\\\\\\\\\\\\\\\

	trk 20 - Disguise Myself - The Catheters

 Intro - B G D A	

 Post Verse (0:36)
[---------------------------]-------------]-------------------]
[---------------------------]--(Pre-Solo)-]-(Solo at 2:02  )--]
[--4-----7----4-------------]--(  1:52  )-]-(w/ tons of wah)--]
[--4-----7----5-------------]--(B w/ pm.)-]-------------------]
[--2-----5----5----5---4-0--]-------------]-------------------]
[-------------3-------------]-------------]-------------------]
   B     D    G    
                       

\\\\\\\\\\\\\\\\\\\\\\\\\\\\\\\\\\\\\\\\\\\\\\\\\\\\\\\\\\\\\\\\\\\\\\\\\\\\\\\\\\\\\\\\\\\\\\\\

	trk 21 - Gotta Make a Change - Los Nachos

 Intro/Verse
[----------------------------------------------------------]
[-----------------------------------(play-first)-----------]
[-((--first half----))--------------(half-again)-----------]
[------------------------------------------------0---------]
[--0-3-5----5---5--5----5--5---0-3-5---------------3-------]
[-----------------------------------------------------3b---]
      (Sometimes during verse  C )              
      (notes on 5 str. are played)
 

 Chorus (0:54) - E G   A G   E (second time, no E at end)
 
 Breakdown (1:06) - D    C D
  
 Interlude (2:00)			             2nd Interlude at 3:16
[---------------------------------------------------]-------------------------------------------]
[---------------------------------------------------]-------------------------------------------]
[---------------------(-play--two)------------------]-------------------------------------------]
[---------------------(more times)------------------]--------------------------------------5----]
[--5---5--5-3--0-------------------------0-3--5--5--]--0-3-5--5---0-3-5---0-3-5--5---0-3-5-----=]
[-----------------1----------------1--3-------------]-------------------------------------------]


  Outro at 3:40 - D  C  G


\\\\\\\\\\\\\\\\\\\\\\\\\\\\\\\\\\\\\\\\\\\\\\\\\\\\\\\\\\\\\\\\\\\\\\\\\\\\\\\\\\\\\\\\\\\\\\\\\

	trk 22 - You Bug Me - Modey Lemon


 Intro, w/ bass gtr. and  electonic vibrato effect; 
        guitar enters w/ vocals       \                   
[-----------------------------------]--19---17h19p17------]	
[-----------------------------------]-----------------19--]
[-----------------------------------]---------------------]   Verse (elec. gtr.) - B     A C
[-----------------------------------]---------------------]
[--2-0-2-0-2-0-etc.--2-0---------0--]---------------------]   
[-------------------------3---0-----]---------------------]


 Chorus (1:19)
   B                  E    G(m)   And at 0:42... 
[--------------------------------]---------------------------------------------------------------]
[--------------------------------]---------------------------------------------------------------]
[-------------------------/3-----]--------------------------------(2nd time similie)-------------]
[--------4/5\4--2-0---2---/5-----]---------------------------------------------------------------]
[--2---2--------------2---/5-----]---------------------------------------------------------------]
[---------------------0---/3-----]--7---7-7--7-7br--7-6---6--6-6--7-0-1--1--1-1--1br-1-0--0-1-0--]
  (ehh, it's close)		               /
                                          (1/2 step)


 (Effects at 1:56)


 Breakdown at 2:08,
 w/ helicopter-sounding
 effect throughout, 
 first chord at 2:11 - ( C D\ ) x3     (A  C  D\ ) x 3      A C D      

  
    
 ///////////////////////=====//////////\\\\\\\\\=====\\\\\\\\\\\\\\\\\\
<<<   <<<   <<<   <<<  <----~dank you veddy much~----->   >>>   >>>   >>
 \\\\\\\\\\\\\\\\\\\\\\\=====\\\\\\\\\\/////////=====//////////////////
  



Related for New Blood The New Rock And Roll Vol 2 tab