Song name
# A B C D E F G H I J K L M N O P Q R S T U V W X Y Z

Various Artists - Ty The Tasmanian Tiger Theme tab

Tabbed by: PizzaRevenge74
Email:

Tuning:EADGBe

e|---------------------------------------------------------------------------|
B|---------------------------------------------------------------------------|
G|---------------------------------------------------------------------------|
D|10-10----------------------------/14-14--14--12---15-14--12----------------|
A|----------9h10-------------------------------------------------------------|
E|---------------10-10----12---10--------------------------------------------|

e|---------------------------------------------------------------------------|
B|---------------------------------------------------------------------------|
G|---------------------------------------------------------------------------|
D|10-10----------------------------------------------------------------------|
A|----------9h10----------------10-------------------------------------------|
E|---------------10-10----12p10----------------------------------------------|




************************************

| /   slide up
| \   slide down
| h   hammer-on
| p   pull-off
| ~   vibrato
| +   harmonic
| x   Mute note
| b   Bend
| pb  Pre-bend
| br  Bend release
| pbr Pre-bend release
| brb Bend release bend

************************************
Tap to rate this tab
# A B C D E F G H I J K L M N O P Q R S T U V W X Y Z