Song name
# A B C D E F G H I J K L M N O P Q R S T U V W X Y Z

Various Artists - Pananagutan tab

                             PANANAGUTAN - Various Catholic Song
-------------------------------------------------------------------------------
Tabbed by:Randy Andal Ante
E-mail:barakotayo@gmail.com
  This is my tab version of this song. You can improve the melody from this like 
  add slide on bars.
 Chords and intro is D G A7 D
  Acoustic
 capo on 1st fret also sound great.
 Hope you like it...

Tuning:Standard

e|------------------------------------------------------------|
B|--0---3------------1--3-----3s--5--5--3--3--1--1s--3--1--0--|
G|----------2s---4---------2--2s--5--5--2---------------------|
D|------------------------------------------------------------|
A|--2---------------------------------------------------------|
E|--3---0-----------------------------------------------------|

e|------------------------------------------------------------|
B|--0---3------------1--3-----3s--5--5--3--3--1--1s--3--1--0--|
G|----------2s---4---------2--2s--5--5--2---------------------|
D|------------------------------------------------------------|
A|--2---------------------------------------------------------|
E|--3---0-----------------------------------------------------|


e|---------------5s--7-----7---5---3-----------------------------------|
B|--1---1--3--5--5s--7--8--7---5---2----1---1---3----------------------|
G|---------------5s--7-----7---5---3----------------1---0---------12~ -|
D|--2-------------------------------------------------------------12~ -|
A|------------------------------------------------------2---------12~ -|
E|--3---------------------------------------------------3--------------|
 tayong lhat    ay  ti  ni pon ng dyos


************************************

| /   slide up
| \   slide down
| h   hammer-on
| p   pull-off
| ~   vibrato
| +   harmonic
| x   Mute note
| b   Bend
| pb  Pre-bend
| br  Bend release
| pbr Pre-bend release
| brb Bend release bend

************************************
Tap to rate this tab
# A B C D E F G H I J K L M N O P Q R S T U V W X Y Z