Song name
# A B C D E F G H I J K L M N O P Q R S T U V W X Y Z

Varukers - Another Religion tab

Another Religion (as played on 'Live in Holland')

Verse
e:----------------|
b:----------------|
g:--------6-6-8-8-|
d:9-9-6-6-6-6-8-8-|
a:9-9-6-6-4-4-6-6-|
e:7-7-4-4---------|


They're fighting out in lebanon
I really don't know why
Tanks are rolling in israel
jets have hit the sky

Chorus:
e:------------------|
b:------------------|
g:--------4----6----|
d:6-------4----6----|
a:6-------2----4----|
e:4-----------------|

another religion, another war
another religion, another war
another religion, another war
another religion, another war

Verse:
they're bombing people in their houses
theyre being blown to bits
shoot them in the streets
die for a myth

Chorus:
another religion, another war
another religion, another war
another religion, another war
another religion, another war

whole stuff 2 times
Tap to rate this tab
# A B C D E F G H I J K L M N O P Q R S T U V W X Y Z