Song name
# A B C D E F G H I J K L M N O P Q R S T U V W X Y Z

Varukers - Dont Conform tab

The Varukers - Don't Conform
Bloodsuckers (1983)
Tabbed By ruker (Varuker@gmail.com)
Standard Tuning EADGBE

-------------
Key:
-------------
~  Vibrato
b  Bend
r  Release
pb Pre-Bend
/  Slide Up
\  Slide Down
-------------

Intro (0:00)
 Right Rhythm Guitar Only         4x
||----------------------------------||
||*--------------------------------*||
||--9-9-9-9-9-9-9-9-5-----7---7-7---||
||--9-9-9-9-9-9-9-9-5-----7---7-7---||
||*-7-7-7-7-7-7-7-7-3-----5---5-5--*||
||----------------------------------||


Pre-Chorus (0:06)
 Both Rhythm Guitars                                                4x
||--------------------------------------------------------------------||
||*------------------------------------------------------------------*||
||--9-9-9-9-9-9-9-9-9-9-9-9-9-9-9-9-5-5-5-5-5-5-5-5-7-7-7-7-7-7-7-7---||
||--9-9-9-9-9-9-9-9-9-9-9-9-9-9-9-9-5-5-5-5-5-5-5-5-7-7-7-7-7-7-7-7---||
||*-7-7-7-7-7-7-7-7-7-7-7-7-7-7-7-7-3-3-3-3-3-3-3-3-5-5-5-5-5-5-5-5--*||
||--------------------------------------------------------------------||


Chorus (0:16)
||------------------------------------------------------------------|
||------------------------------------------------------------------|
||-5-5-5-5-5-5-5-5-2-2-2-2-2-2-2-2-5-5-5-5-5-5-5-5-2-2-2-2-2-2-2-2--|
||-5-5-5-5-5-5-5-5-2-2-2-2-2-2-2-2-5-5-5-5-5-5-5-5-2-2-2-2-2-2-2-2--|
||-3-3-3-3-3-3-3-3-0-0-0-0-0-0-0-0-3-3-3-3-3-3-3-3-0-0-0-0-0-0-0-0--|
||------------------------------------------------------------------|


|------------------------------------------------------------------||
|------------------------------------------------------------------||
|-5-5-5-5-5-5-5-5-5-5-5-5-5-5-5-5-2-2-2-2-2-2-2-2-2-2-2-2-2-2-2-2--||
|-5-5-5-5-5-5-5-5-5-5-5-5-5-5-5-5-2-2-2-2-2-2-2-2-2-2-2-2-2-2-2-2--||
|-3-3-3-3-3-3-3-3-3-3-3-3-3-3-3-3-0-0-0-0-0-0-0-0-0-0-0-0-0-0-0-0--||
|------------------------------------------------------------------||


Verse (0:21)                        4x
||------------------------------------||
||*----------------------------------*||
||--9-9-9-9-9-9-9-9-5-5-5-5-7-7-7-7---||
||--9-9-9-9-9-9-9-9-5-5-5-5-7-7-7-7---||
||*-7-7-7-7-7-7-7-7-3-3-3-3-5-5-5-5--*||
||------------------------------------||


Pre-Chorus (0:26)                                                   4x
||--------------------------------------------------------------------||
||*------------------------------------------------------------------*||
||--9-9-9-9-9-9-9-9-9-9-9-9-9-9-9-9-5-5-5-5-5-5-5-5-7-7-7-7-7-7-7-7---||
||--9-9-9-9-9-9-9-9-9-9-9-9-9-9-9-9-5-5-5-5-5-5-5-5-7-7-7-7-7-7-7-7---||
||*-7-7-7-7-7-7-7-7-7-7-7-7-7-7-7-7-3-3-3-3-3-3-3-3-5-5-5-5-5-5-5-5--*||
||--------------------------------------------------------------------||


Chorus (0:37)
||------------------------------------------------------------------|
||------------------------------------------------------------------|
||-5-5-5-5-5-5-5-5-2-2-2-2-2-2-2-2-5-5-5-5-5-5-5-5-2-2-2-2-2-2-2-2--|
||-5-5-5-5-5-5-5-5-2-2-2-2-2-2-2-2-5-5-5-5-5-5-5-5-2-2-2-2-2-2-2-2--|
||-3-3-3-3-3-3-3-3-0-0-0-0-0-0-0-0-3-3-3-3-3-3-3-3-0-0-0-0-0-0-0-0--|
||------------------------------------------------------------------|


|------------------------------------------------------------------||
|------------------------------------------------------------------||
|-5-5-5-5-5-5-5-5-5-5-5-5-5-5-5-5-2-2-2-2-2-2-2-2-2-2-2-2-2-2-2-2--||
|-5-5-5-5-5-5-5-5-5-5-5-5-5-5-5-5-2-2-2-2-2-2-2-2-2-2-2-2-2-2-2-2--||
|-3-3-3-3-3-3-3-3-3-3-3-3-3-3-3-3-0-0-0-0-0-0-0-0-0-0-0-0-0-0-0-0--||
|------------------------------------------------------------------||


Verse (0:42)                        4x
||------------------------------------||
||*----------------------------------*||
||--9-9-9-9-9-9-9-9-5-5-5-5-7-7-7-7---||
||--9-9-9-9-9-9-9-9-5-5-5-5-7-7-7-7---||
||*-7-7-7-7-7-7-7-7-3-3-3-3-5-5-5-5--*||
||------------------------------------||


Pre-Chorus (0:47)                                                   4x
||--------------------------------------------------------------------||
||*------------------------------------------------------------------*||
||--9-9-9-9-9-9-9-9-9-9-9-9-9-9-9-9-5-5-5-5-5-5-5-5-7-7-7-7-7-7-7-7---||
||--9-9-9-9-9-9-9-9-9-9-9-9-9-9-9-9-5-5-5-5-5-5-5-5-7-7-7-7-7-7-7-7---||
||*-7-7-7-7-7-7-7-7-7-7-7-7-7-7-7-7-3-3-3-3-3-3-3-3-5-5-5-5-5-5-5-5--*||
||--------------------------------------------------------------------||


Chorus (0:57)
||------------------------------------------------------------------|
||------------------------------------------------------------------|
||-5-5-5-5-5-5-5-5-2-2-2-2-2-2-2-2-5-5-5-5-5-5-5-5-2-2-2-2-2-2-2-2--|
||-5-5-5-5-5-5-5-5-2-2-2-2-2-2-2-2-5-5-5-5-5-5-5-5-2-2-2-2-2-2-2-2--|
||-3-3-3-3-3-3-3-3-0-0-0-0-0-0-0-0-3-3-3-3-3-3-3-3-0-0-0-0-0-0-0-0--|
||------------------------------------------------------------------|


|------------------------------------------------------------------||
|------------------------------------------------------------------||
|-5-5-5-5-5-5-5-5-5-5-5-5-5-5-5-5-2-2-2-2-2-2-2-2-2-2-2-2-2-2-2-2--||
|-5-5-5-5-5-5-5-5-5-5-5-5-5-5-5-5-2-2-2-2-2-2-2-2-2-2-2-2-2-2-2-2--||
|-3-3-3-3-3-3-3-3-3-3-3-3-3-3-3-3-0-0-0-0-0-0-0-0-0-0-0-0-0-0-0-0--||
|------------------------------------------------------------------||


Verse (1:03)                        4x
||------------------------------------||
||*----------------------------------*||
||--9-9-9-9-9-9-9-9-5-5-5-5-7-7-7-7---||
||--9-9-9-9-9-9-9-9-5-5-5-5-7-7-7-7---||
||*-7-7-7-7-7-7-7-7-3-3-3-3-5-5-5-5--*||
||------------------------------------||


Solo (1:08)
 Lead Guitar
||------------------------------------------------------------------|
||-5---------------5---------------5---------------5----------------|
||-8b--------------8b--------------8b--------------8b---------------|
||------------------------------------------------------------------|
||------------------------------------------------------------------|
||------------------------------------------------------------------|
|                                                                   |
|Rhythm Guitars (Left & Right)                                      |
||------------------------------------------------------------------|
||------------------------------------------------------------------|
||-9-9-9-9-9-9-9-9-9-9-9-9-9-9-9-9-5-5-5-5-5-5-5-5-7-7-7-7-7-7-7-7--|
||-9-9-9-9-9-9-9-9-9-9-9-9-9-9-9-9-5-5-5-5-5-5-5-5-7-7-7-7-7-7-7-7--|
||-7-7-7-7-7-7-7-7-7-7-7-7-7-7-7-7-3-3-3-3-3-3-3-3-5-5-5-5-5-5-5-5--|
||------------------------------------------------------------------|


|-5---------------5---------------5---------------5----------------|
|-5---------------5---------------5---------------5----------------|
|-8b--------------8b--------------8b--------------8b---------------|
|------------------------------------------------------------------|
|------------------------------------------------------------------|
|------------------------------------------------------------------|
|                                                                  |
|                                                                  |
|------------------------------------------------------------------|
|------------------------------------------------------------------|
|-9-9-9-9-9-9-9-9-9-9-9-9-9-9-9-9-5-5-5-5-5-5-5-5-7-7-7-7-7-7-7-7--|
|-9-9-9-9-9-9-9-9-9-9-9-9-9-9-9-9-5-5-5-5-5-5-5-5-7-7-7-7-7-7-7-7--|
|-7-7-7-7-7-7-7-7-7-7-7-7-7-7-7-7-3-3-3-3-3-3-3-3-5-5-5-5-5-5-5-5--|
|------------------------------------------------------------------|


|---------------------------------15------15------15------15-------|
|-12--12--12--12--12--12--12--12--19br----19br----19br----19br-----|
|-15b-15pb15pb15pb15pb15pb15pb15pb---------------------------------|
|------------------------------------------------------------------|
|------------------------------------------------------------------|
|------------------------------------------------------------------|
|                                                                  |
|                                                                  |
|------------------------------------------------------------------|
|------------------------------------------------------------------|
|-9-9-9-9-9-9-9-9-9-9-9-9-9-9-9-9-5-5-5-5-5-5-5-5-7-7-7-7-7-7-7-7--|
|-9-9-9-9-9-9-9-9-9-9-9-9-9-9-9-9-5-5-5-5-5-5-5-5-7-7-7-7-7-7-7-7--|
|-7-7-7-7-7-7-7-7-7-7-7-7-7-7-7-7-3-3-3-3-3-3-3-3-5-5-5-5-5-5-5-5--|
|------------------------------------------------------------------|


|------------------------------------------------------------------||
|-12--------------13--------------15--------------17---17---17-----||
|-15b-------------16b-------------18b-------------20br-20br-20b~---||
|------------------------------------------------------------------||
|------------------------------------------------------------------||
|------------------------------------------------------------------||
|                                                                   |
|                                                                   |
|------------------------------------------------------------------||
|------------------------------------------------------------------||
|-9-9-9-9-9-9-9-9-9-9-9-9-9-9-9-9-5-5-5-5-5-5-5-5-7-7-7-7-7-7-7-7--||
|-9-9-9-9-9-9-9-9-9-9-9-9-9-9-9-9-5-5-5-5-5-5-5-5-7-7-7-7-7-7-7-7--||
|-7-7-7-7-7-7-7-7-7-7-7-7-7-7-7-7-3-3-3-3-3-3-3-3-5-5-5-5-5-5-5-5--||
|------------------------------------------------------------------||


Chorus (1:18)
 Both Rhythm Guitars
||------------------------------------------------------------------|
||------------------------------------------------------------------|
||-5-5-5-5-5-5-5-5-2-2-2-2-2-2-2-2-5-5-5-5-5-5-5-5-2-2-2-2-2-2-2-2--|
||-5-5-5-5-5-5-5-5-2-2-2-2-2-2-2-2-5-5-5-5-5-5-5-5-2-2-2-2-2-2-2-2--|
||-3-3-3-3-3-3-3-3-0-0-0-0-0-0-0-0-3-3-3-3-3-3-3-3-0-0-0-0-0-0-0-0--|
||------------------------------------------------------------------|


|------------------------------------------------------------------||
|------------------------------------------------------------------||
|-5-5-5-5-5-5-5-5-5-5-5-5-5-5-5-5-2-2-2-2-2-2-2-2-2-2-2-2-2-2-2-2--||
|-5-5-5-5-5-5-5-5-5-5-5-5-5-5-5-5-2-2-2-2-2-2-2-2-2-2-2-2-2-2-2-2--||
|-3-3-3-3-3-3-3-3-3-3-3-3-3-3-3-3-0-0-0-0-0-0-0-0-0-0-0-0-0-0-0-0--||
|------------------------------------------------------------------||


Outro (1:24)
||------------------------------------|----------||
||*----------------------------------*|----------||
||--9-------9-------9-------9---------|-9\-------||
||--9-------9-------9-------9---------|-9\-------||
||*-7-------7-------7-------7--------*|-7\-------||
||------------------------------------|----------||
Tap to rate this tab
# A B C D E F G H I J K L M N O P Q R S T U V W X Y Z