Song name
# A B C D E F G H I J K L M N O P Q R S T U V W X Y Z

Varukers - United We Stand tab

Tabbed By Darsh

The Varukers- United We stand

These guys are a kick ass punk band!!!


VERSE AND INTRO
|------------------------|
|------------------------|
|------------------------|
|--8xx-----6x------------|
|--6xx-8xx-4x-666--------|
|------6xx----444--------|
|------------------------|
|------------------------|
|------------------------|
|--8xx-----6x------------|
|--6xx-8xx-4x-666--------|
|------6xx----444--------|

Chorus
|------------------------|
|------------------------|
|------------------------|
|-11---------------------|x9
|-9----------------------|
|------------------------|

|------------------------|
|------------------------|
|------------------------|
|--11/8--11/8------------|
|--9-/6--9/6-------------|
|------------------------|
Tap to rate this tab
 
# A B C D E F G H I J K L M N O P Q R S T U V W X Y Z