Song name
# A B C D E F G H I J K L M N O P Q R S T U V W X Y Z

Vasco Rossi - Il Mondo Che Vorrei tab

CiaO, questa  la mia primissima tab...
Non  correttissima, ma  decente...
_____________________________________
ACCORDATURA: Standard
h=hammer-on
p=pull-off
s=slide

|---------------------------|-----------------------------|
|--15---15-15-15-14-12-10---|15-15-15-15-14-12-10---------|
|-------------------------11|--------------------11-12-14~|
|---------------------------|-----------------------------|
|---------------------------|-----------------------------|
|---------------------------|-----------------------------|

|---------------------------|-----------------------------|
|15-17-19-15-17-------------|14-15-17-15-14-15------------|
|--------------16-18~~------|-----------------14----------|
|---------------------------|-----------------------------|
|---------------------------|-----------------------------|

NON E' L'ASSOLO COMPLETO, MA E' SOLTANTO IL PEZZO DI INIZIO...
SE AVETE SUGGERIMENTI, CONTATTATEMI A: cosimo_gallo@hotmail.it
Spero sia OK...
Tap to rate this tab
# A B C D E F G H I J K L M N O P Q R S T U V W X Y Z