Song name
# A B C D E F G H I J K L M N O P Q R S T U V W X Y Z

Vasco Rossi - Sballi Ravvicinati Del Terzo Tipo tab

By Zello


|---9----7----------7-------------7------------7----------------|
|--------------0-------------0-------------0--------------------|
|-----------0-----0-------0-----0-------0-----0-----------------|
|--------0-------------0-------------0--------------------------|
|---------------------------------------------------------------|
|---------------------------------------------------------------|

|--7-----5----3-------2---0---5---------------5---------|
|--0-----0----0-------3---3---3---------3---------------|
|---------------------2---2---2------2-----2-------X3---|
|--0-----0----0-------0---0---0---0---------------------|
|-------------------------------------------------------|
|-------------------------------------------------------|

|---3/2p------------0-------2---0---5---------------5-----|
|---------------2-----------3---3---3---------3-----------|
|-------------2---2-----X4--2---2---2------2-----2--------|
|---------------------------0---0---0---0-----------------|
|----------0----------------------------------------------|
|---------------------------------------------------------|
Tap to rate this tab
 
# A B C D E F G H I J K L M N O P Q R S T U V W X Y Z