Song name
# A B C D E F G H I J K L M N O P Q R S T U V W X Y Z

Vasco Rossi - Siamo Soli tab

----------------------------------------------------------------------------
			     SONG NAME - Band Name
----------------------------------------------------------------------------
Tabbed by: Giuseppe Novelli
Email: giunovelli@hotmail.com

Tuning:

e|-------------------------------------------------------------------------------|
B|-------------------------------------------------------------------------------|
G|-------------------------------------------------------------------------------|
D|--------------------2--------------------------------2-2/3---7-----------------|
A|------3---3-3-3-3-5--5-3---3-3-3-3-----3-3-3-3-3-3-5-------5---3---------------|
E|--3/5------------------------------5-3-----------------------------------------|

e|-----------------------------------------------------------------------------|
B|-----------------------------------------------------------------------------|
G|-----------------------------------------------------------------------------|
D|-----------------------------------------------------------------------------|
A|------3---3--------------3---3-----------------------------------------------|
E|--3/5---------3-1---1---3--------3-1-0---------------------------------------|


| /  slide up
| \  slide down
| h  hammer-on
| p  pull-off
| ~  vibrato
| +  harmonic
| x  Mute note
============================================================================
Tap to rate this tab
# A B C D E F G H I J K L M N O P Q R S T U V W X Y Z