Guitaretab - guitar tabs
Song name
# A B C D E F G H I J K L M N O P Q R S T U V W X Y Z

Vasco Rossi - Buoni O Cattivi tab

*riff intro (x2)*
--------------------------------------------------------|
----6-5----3--6-5-3-----6-5----3-3-3--------------------|
--------5-------------------5---------2-3---------------|
-5------------------5-5--------------------5------------|
--------------------------------------------------------|
--------------------------------------------------------|

 Sol
Si pu spegnere ogni tanto ogni pensiero
 Do
Smettere almeno di crederci per davvero
 Sol
E non essere pi schiavi per dovere
 Do
Di un'idea come di un'altra,di un mistero

 Mim                Fa            Do
Sembra che non sia possibile dimenticarsi di s
 Mim                Fa            Do
E giudicandoci ognuno con gli altri convicerci che
Se non lo sai

------------|
------------|
------------|
--------5---|
--5-5-7-----|
------------|

 Lam        Fa      Do      Sol
Buoni o cattivi non  la fine
 Lam       Fa       Do         Sol
Prima c' il giusto o sbagliato da sopportare
 Sol
Da sopportare

-------------------------------------------|
-------------------------------------------|
-------------------------------------------|
-------------------------------------------|
-2/3-5--2/3-5--3-2-5-5--2/3-5--3-2-5-5-----|
-------------------------------------------|

 Sol
Si pu spegnere ogni tanto il cervello  (Fa/Sol/Lam)
 Do
Smettere almeno di usare solo quello    (Fa/Sol/Lam)
 Sol
Si pu far finta che non ci sia niente  (Fa/Sol/Lam)
 Do
Anche quando ti tremano le gambe       (Fa/Sol/Lam)
[ Tab from: http://www.guitaretab.com/v/vasco-rossi/71583.html ]
 Mim                Fa            Do
Sembra che non sia possibile dimenticarsi di s
 Mim                Fa            Do
E giudicandoci ognuno con gli altri convicerci che
Se non lo sai

-----------|
-----------|
-----------|
--------5--|
--5-5-7----|
-----------|

Lam         Fa      Do      Sol
Buoni o cattivi non  la fine
Lam        Fa       Do         Sol
Prima c' il giusto o sbagliato da sopportare
Sol
Da sopportare

Mib               Fa
Che di per s non  detto
Do            (Sol/Do/Sol/Do)
Perch divide
Mib           Fa
Mentre qui tutto
Do            (Sol/Do/Sol/Do/Sol)
Dovrebbe solo unire

*riff intro *
--------------------------------------------------------------------------16-15----|
----6-5----3--6-5-3-----6-5----3-3-3-----------8-8-10-12-12-12-10-8----------------|
--------5-------------------5---------2-3------------------------------------------|
-5------------------5-5--------------------5---------------------------------------|
-----------------------------------------------------------------------------------|
-----------------------------------------------------------------------------------|

Do/Re/Do

Lam         Fa      Do      Sol
Buoni o cattivi non  la fine
Lam        Fa       Do         Sol
Prima c' il giusto o sbagliato da sopportare
Sol
Da sopportare

*riff da ripetere 4 volte (fa da base anche durante l'assolo*)
-------------------------------------------|
-------------------------------------------|
-------------------------------------------|
-------------------------------------------|
-2/3-5--2/3-5--3-2-5-5--2/3-5--3-2-5-5-----|
-------------------------------------------|

Sol
Si pu spegnere ogni tanto ogni pensiero
Related for Buoni O Cattivi tab