Song name
# A B C D E F G H I J K L M N O P Q R S T U V W X Y Z

Vaselines - Bitch tab

Bitch

e-------------------|-------------------|
B-------------------|5------------------|
G----7-5------------|--7-----5----------|
D--7-----7-5-7-5/7--|----5/7------------|
A-------------------|-------------------|
E-------------------|-------------------|

A D C A

e-------------------------------------|
B-------------------------------------|
G-------------------------------------|  G---5---|
D-5-7-7-5-7-7-5-7-7-5-7-7-7/10-10-10-5|
A-------------------------------------|
E-------------------------------------|
Tap to rate this tab
# A B C D E F G H I J K L M N O P Q R S T U V W X Y Z