Song name
# A B C D E F G H I J K L M N O P Q R S T U V W X Y Z

Vaselines - Dum-dum tab

e|-----------------|
B|---------2/42----|
G|---4-4-----------|
D|---4-4-----------|
A|---2-2-----------|
E|-----------------|
Im a real dum dum , etc

e|----------------|
B|----------------|
G|---5---4--------|
D|---5---4--------|
A|---3---2--------|
E|----------------|
    dum dum

the solo is probably off, but it sounds good to me

e|---------------------------------------------|
B|--10(x8)-9-8-7-6-6-3/7-7-5/7-7-3/7-7-5/7-7-7-|
G|---------------------------------------------|
D|---------------------------------------------|
A|---------------------------------------------|
E|---------------------------------------------| 4 times then

e|-------------------|
B|--7-7-7-7-7-7-7-7--|
G|-------------------|
D|-------------------|
A|-------------------|
E|-------------------|
Tap to rate this tab
 
# A B C D E F G H I J K L M N O P Q R S T U V W X Y Z