Song name
# A B C D E F G H I J K L M N O P Q R S T U V W X Y Z

Vaselines - Jesus Wants Me For A Sunbeam tab

INTRO

E--2---2-2---2-0---------------------3---3-3----------3---3-3---3-3---|
B--3---3-3-------3--1---1-1---3-1-0--3---3-3---1-1-0--3---3-3---3-3-0-|
G--2---2-2----------0---0-0----------0---0-0---0-0-0--0---0-0---0-0-0-|
D--0---0-0----------2---2-2----------0---0-0---2-2-0--0---0-0---0-0-0-|
A-------------------3---3-3----------2---2-2---3-3-0--2---2-2---2-2-0-|
E------------------------------------3---3-3----------3---3-3---3-3---|

VERSE

E--2---2-2---0-0-0-----------------------3---3-3----------3---3-3---3-3---|
B--3---3-3---3-3-3-0--1---1-1---1-1-1-0--3---3-3---1-1-0--3---3-3---3-3-0-|
G--2---2-2---2-2-2-0--0---0-0---0-0-0-0--0---0-0---0-0-0--0---0-0---0-0-0-|
D--0---0-0---0-0-0-0--2---2-2---2-2-2-0--0---0-0---2-2-0--0---0-0---0-0-0-|
A------------------0--3---3-3---3-3-3-0--2---2-2---3-3-0--2---2-2---2-2-0-|
E----------------------------------------3---3-3----------3---3-3---3-3---|


CHORUS

E--2---2-2---0-0-0----------------------|
B--3---3-3---3-3-3-0--1---1-1---1-1-1-0-|
G--2---2-2---2-2-2-0--0---0-0---0-0-0-0-|
D--0---0-0---0-0-0-0--2---2-2---2-2-2-0-|
A------------------0--3---3-3---3-3-3-0-|
E---------------------------------------|
Tap to rate this tab
# A B C D E F G H I J K L M N O P Q R S T U V W X Y Z