Song name
# A B C D E F G H I J K L M N O P Q R S T U V W X Y Z

Vashti Bunyan - Glow Worms tab

Artist: Vashti Bunyan
Song: Glow Worms
Disc: Just Another Diamond Day


Arpeggios:

A

e|--------------|
B|-----0-3-0----|
G|---0-------0--|
D|--------------|
A|-3------------|
E|--------------|

B

e|--------------|
B|-----0-3-0----|
G|---0-------0--|
D|-0------------|
A|--------------|
E|--------------|

C

e|--------------|
B|-----1-3-1----|
G|---2-------2--|
D|-3------------|
A|--------------|
E|--------------|

D

e|--------------|
B|-----1-3-1----|
G|---2-------2--|
D|-0------------|
A|--------------|
E|--------------|

E

e|--------------|
B|-----1-3-1----|
G|---2-------2--|
D|--------------|
A|-3------------|
E|--------------|

F

e|--------------|
B|-----0-3-0----|
G|---0-------0--|
D|--------------|
A|-0------------|
E|--------------|

G

e|----------------|
B|---0---0-3-0----|
G|-0---0-------0--|
D|----------------|
A|---3------------|
E|----------------|

H

e|-----------|
B|-----0--3--|
G|---0-------|
D|-----------|
A|-3---------|
E|-----------|


[Intro]: A B C D

A          B                C          D
Glow worms show the path we have to tread
E         D            A         B
Dreamers, we should be asleep in bed
A         B               C           D
Moving slowly through the springtime air
E         D            A         F
Holding moments in the depth of care
A	       F             C        D
Holding moments in the depth of care

[Intro]

Whisper fairy stories 'til they're real,
Wonder how the night can make us feel
Loving living more with love to stay
Long past sadness that was in our way
Long past sadness that was in our way

[Intro]

Dawntime mist begins reflecting light,
Waking sun will soon forget our night
Love me through the day and I'll with you go
Into summer and the next year's snow
Into summer and the next year's snow

[End]: A B C D H


NOTE: In the third repetition (Dawntime mist...), "A" part of the intro is replaced by 
that it's practicly the same but with some ornaments.

Tabbed by: Simon Yanez
Tap to rate this tab
 
# A B C D E F G H I J K L M N O P Q R S T U V W X Y Z