Song name
# A B C D E F G H I J K L M N O P Q R S T U V W X Y Z

Vashti Bunyan - Here Before tab

Here Before
Vashti Bunyan

Standard Tuning
Capo 3

Tabbed from a live performance (http://www.youtube.com/watch?v=Aiq4rdJoMgs) as 
well as the album version album version.

Introduction
e --------------------|
B --------------------|
G --------4--------4--|
D -----5--------5-----|
A --7--------5--------|
E --------------------|
          4x		

Verse 1
e --------------------|-----------|-------------------|--------------------|
B --------------------|-----------|-------------------|--------------------|
G --------4--------4--|--------4--|--------4-------4--|--------4--------4--|
D -----5--------5-----|-----5-----|-----5-------5-----|-----5--------5-----|
A --7--------5--------|--5--------|--3--------5-------|--7--------5--------|
E --------------------|-----------|-------------------|--------------------|
          2x               4x               2x                  2x
1.	Once I had a child, he was wilder than moonlight...

Break
e --------------------|
B --------------------|
G --------4--------4--|
D -----5--------5-----|
A --7--------5--------|
E --------------------|
          2x	

Verse 2
e --------------------|-----------|-------------------|-------------------|
B --------------------|-----------|-------------------|-------------------|
G --------4--------4--|--------4--|--------4-------4--|--------4-------4--|
D -----5--------5-----|-----5-----|-----5-------5-----|-----5-------5-----|
A --7--------5--------|--5--------|--3--------5-------|--7--------5-------|
E --------------------|-----------|-------------------|-------------------|
         2x                4x               2x                  4x
2.	Once I had a child, she was smiling like sunshine...

Break
e --------------------|-----------|-------------------|-------------------|
B --------------------|-----------|-------------------|-------------------|
G --------4--------4--|--------4--|--------4-------4--|--------4-------4--|
D -----5--------5-----|-----5-----|-----5-------5-----|-----5-------5-----|
A --7--------5--------|--5--------|--3--------5-------|--7--------5-------|
E --------------------|-----------|-------------------|-------------------|
          2x               4x               2x                  2x

Verse 3
e --------------------|-----------|-------------------|-------------------|
B --------------------|-----------|-------------------|-------------------|
G --------4--------4--|--------4--|--------4-------4--|--------4-------4--|
D -----5--------5-----|-----5-----|-----5-------5-----|-----5-------5-----|
A --7--------5--------|--5--------|--3--------5-------|--7--------5-------|
E --------------------|-----------|-------------------|-------------------|
          2x               4x              2x                   4x
3.	Then I had a child, took his while like northern summer...

Instrumental / Outro
e -----------|-------------------|--------------------|-----------|
B -----------|-------------------|--------------------|-----------|
G --------4--|--------4-------4--|--------4--------4--|--------4--|
D -----5-----|-----5-------5-----|-----5--------5-----|-----5-----|
A --5--------|--3--------5-------|--7--------5--------|--5--------|
E -----------|-------------------|--------------------|-----------|
      4x              2x                   6x              4x
e -------------------|--------------------|-----||
B -------------------|--------------------|-----||
G --------4-------4--|--------4--------4--|-----||
D -----5-------5-----|-----5--------5-----|-----||
A --3--------5-------|--7--------5--------|--7--||
E -------------------|--------------------|-----||
          2x                   12x	

Tap to rate this tab
 
# A B C D E F G H I J K L M N O P Q R S T U V W X Y Z