Guitaretab - guitar tabs
Song name
# A B C D E F G H I J K L M N O P Q R S T U V W X Y Z
Home / V / Vast / Candle tab

Vast - Candle tab

Highlighted       Show chord diagrams
VAST
Candle
Tabbed by GOLDZWEIG

Intro:

Gtr 1 (Acoustic)
Part-A
e|----------------------------------------------------|
B|----------------------------------------------------|
G|----------------------------------------------------|
D|-22222222-4-5555555555-4-555555555-7-5-4444444444---|
A|-22222222-4-5555555555-4-555555555-7-5-4444444444---|
E|-20000000-2-3333333333-2-333333333-5-3-2222222222---|

e|----------------------------------------------------|
B|----------------------------------------------------|
G|----------------------------------------------------|
D|-22222222-4-5555555555-4-555555555-7-5-7777777777---|
A|-22222222-4-5555555555-4-555555555-7-5-7777777777---|
E|-20000000-2-3333333333-2-333333333-5-3-5555555555---|

Gtr 2 (echo distortion)

e|------------------------------------------------------------------|
B|-0----5-5-0---5-5-0----3-3----------5-5-0-----5-5-0---------------|(play
G|------------5-------5------5-4----4-------4s2-------4s2-2-4-4-2-4-| this 
D|------------------------------------------------------------------| until
A|------------------------------------------------------------------| piano
E|------------------------------------------------------------------| starts)
                                                                      
Then, a second guitar comes in playing this:

e|----------------------------------------------------|
B|-00000000-0-0000000000-0-000000000-0-0-0000000000---|
G|-00000000-0-0000000000-0-000000000-0-0-0000000000---|
D|-22222222-4-5555555555-4-555555555-7-5-7777777777---|
A|-22222222-4-5555555555-4-555555555-7-5-7777777777---|
E|-20000000-2-3333333333-2-333333333-5-3-5555555555---|
[ Tab from: http://www.guitaretab.com/v/vast/142670.html ]
Dissolve this candle, it's the one you gave to me
It has enough light, just enough to torture me
   
A5, C, A5, C, A5, C, A5, C    

(Part A)
Just take this candle, it's the one you gave to me
I left you crying at the alter of your mind

A5, C, A5, C, A5, C, A5, C    

Before you let the world mess up your soul
Oooooooh, oooooooooooooh, ooh


Solo

e|----------------------------------------------------|
B|---8-7-5s3-10-5-8-5-10-5-12-10-10s12----------------|
G|----------------------------------------------------|x2 (After the first 
D|----------------------------------------------------|    time, Part A 
A|----------------------------------------------------|    Starts again)
E|----------------------------------------------------|

e|----------------------------------------------------|
B|---15-15-15-15-15-17-17-17-17-17-19-19-15-15--------|
G|----------------------------------------------------|x2
D|----------------------------------------------------|
A|----------------------------------------------------|
E|----------------------------------------------------|


A5, C, A5, C, A5, C, A5, C

Before you let the world mess up your soul
Try to be the girl you once were

C
A5, C, A5, C, A5, C, A5, C
Oooooooh, ooooooooooooh
Oooooooh, ooooooooooooh, Ooh

---------------------------Chords Diagrams----------------------------------


C
|---|---|---|---|---|o
|-x-|---|---|---|---|o
|---|---|---|---|---|o
|---|-x-|---|---|---|o
|---|---|-x-|---|---|
|---|---|---|---|---|x

A5
|---|---|---|---|---|o
|---|---|---|---|---|o
|---|-x-|---|---|---|o
|---|-x-|---|---|---|o
|---|---|---|---|---|
|---|---|---|---|---|x














Related for Candle tab