Song name
# A B C D E F G H I J K L M N O P Q R S T U V W X Y Z

Vast - Gates Of Rock N Roll tab

The Gates of Rock 'N' Roll - VAST


Intro:
E--------------------------------------------------------|
B--------------------------------------------------------|
G--------------------------------------------------------|
D--9-7---9-7---10-7---9-7--------------------------------|
A--------------------------------------------------------|
E--------------------------------------------------------|


Chorus:
E--------------------------------------------------------|
B--------------------------------------------------------|
G--------------------------------------------------------|
D-3/5555-------------------------------------------------|
A-3/5555-------------------------------------------------|
E-1/3333-------------------------------------------------|

Corrections welcome.
Tap to rate this tab
 
# A B C D E F G H I J K L M N O P Q R S T U V W X Y Z