Song name
# A B C D E F G H I J K L M N O P Q R S T U V W X Y Z

Vast - Free tab

intro
e(--------------------------)
b(--5-55-55-----------------)
g(--4-44-44-----------------)
d(--2-22-22-0h2-0h2-3-2-0h2-)
a(--------------------------)
D(--------------------------)

chorus
e(-------------)
b(-------------)
g(-----4-------)
d(--2--4--4--2-)
a(--2--2--4--2-)
D(--2-----4--2-)

verse
e(------------------------------------------------)
b(------------------------------------------------)
g(------------------------------------------------)
d(----2-2-0h2---2-2-0h2---2-2-0h2-0h2-0h2-3-2-0h2-)
a(------------------------------------------------)
D(--2---------2---------2-------------------------)
Tap to rate this tab
 
# A B C D E F G H I J K L M N O P Q R S T U V W X Y Z