Song name
# A B C D E F G H I J K L M N O P Q R S T U V W X Y Z

Vast - Touched tab

Guitar lesson on Touched below:

http://www.youtube.com/watch?v=9Y0oSGSbA70





Verse guitar 1:

|-------------------------------------------------|
|-------------------------------------------------|
|-------------------------------------------------|
|-------------------------------------------------|
|-4-------4-------4-------6-----------------------|
|-2-------5-------4-------7-----------------------|


Verse guitar 2:


|-------------------------------------------------|
|-------------------------------------------------|
|-------------------------------------------------|
|-4-------4-------4-------4-----------------------|
|-x-------x-------x-------2-----------------------|
|-2-------5-------4-------------------------------|


Break 1:


|-------------------------------------------------|
|-------------------------------------------------|
|-9-------9-------8-------7-------7-------6-------|
|-x-------x-------x-------x-------x-------x-------|
|-7-------7-------6-------5-------5-------4-------|
|-0-------9-------7-------7-------5-------5-------|


Break 2:

|-------------------------------------------------|
|-------------------------2-----------------------|
|-2-------4-------4-------2-----------------------|
|-x-------x-------x-------2-----------------------|
|-2-------6-------5-------4-----------------------|
|-0-----------------------------------------------|
Tap to rate this tab
# A B C D E F G H I J K L M N O P Q R S T U V W X Y Z