Song name
# A B C D E F G H I J K L M N O P Q R S T U V W X Y Z

Vast - Desert Garden tab

-------------------------------------------------------------------------------
                             SECRET GARDEN- Vast
-------------------------------------------------------------------------------
Tabbed by:JuxtaPolar
E-mail:refinisharts@hotmail.com

Tuning:Drop D

Intro/Verse

e|---------------------------------------------------------------------------|
B|---------------------------------------------------------------------------|
G|---------------------------------------------------------------------------|
D|--10---------0----------3------------5-5-5-5-5-5-5-5-----------------------|
A|--0----8x----0----8x----0----8x-then-3-3-3-3-2-2-2-2---repeat--------------|
D|--10---------0----------3------------0-0-0-0-0-0-0-0-----------------------|


Chorus
e|--0----------0---------0------------0-0-0-0-0-0-0-0------------------------|
B|--1----------1---------1------------1-1-1-1-1-1-1-1------------------------|
G|--2----8x----0----8x---2----8x-then-0-0-0-0-0-0-0-0---repeat---------------|
D|--3----------2---------2------------0-0-0-0-0-0-0-0------------------------|
A|--0----------3---------0------------3-3-3-3-2-2-2-2------------------------|
D|---------------------------------------------------------------------------|


...Something like that. I think the chorus is a bit off but it sounds good when I 
attempt to sing along.

************************************

| /   slide up
| \   slide down
| h   hammer-on
| p   pull-off
| ~   vibrato
| +   harmonic
| b   Bend
| pb  Pre-bend
| br  Bend release
| pbr Pre-bend release
| brb Bend release bend
Tap to rate this tab
 
# A B C D E F G H I J K L M N O P Q R S T U V W X Y Z