Song name
# A B C D E F G H I J K L M N O P Q R S T U V W X Y Z

Vast - Lady Of Dreams tab

Artist:  Vast
Song:  Lady  of dreams

E -------------------------------------------------------------------|
B -------(6 times)-----------1-1--------(2 times)------------1-1-----|
G ----0-0--------------------1-1-----0-0---------------------1-1-----|
D ----1-1------------0-0---3---------1-1-------------0-0---3---------|
A --3----------------1-1-----------3-----------------1-1-------------|
E -----------------3-------------------------------3-----------------|

E -------------------------------------------------------------------|
B ----8-8---------------------1-1--------(2 times)------------1-1----|
G ------------0-0-------------1-1-----0-0---------------------1-1----|
D ----8-8-----1-1-----0-0---3---------1-1-------------0-0---3--------|
A --6-------3---------1-1-----------3-----------------1-1------------|
E ------------------3-------------------------------3----------------|

E ------------5-5------------------|       Theres half of it, go to lady of dreams2
B ----8-8--------------------------|       I messed up on the last chord on lady2,
G ------------5-5------------------|       Just disregard it. thanks
D ----8-8---3----------------------|       Mike
A --6--------------       tensor55-|hotmail.com
E ---------------------------------|
Tap to rate this tab
# A B C D E F G H I J K L M N O P Q R S T U V W X Y Z