Song name
# A B C D E F G H I J K L M N O P Q R S T U V W X Y Z

Vast - Turquoise tab

verse
e(-----------------------------------------------------------)
b(-----------------------------------------------------------)
g(-----------------------------------------------------------)
d(-----------------------------------------------------------)
a(-----------------------------------------------------------)
D(--6-6-6-6-9-9-6-6-9-9-6-6-6-6--6-6-9-9-6-6-9-9-6-6-6-6-6-6-)
  pm. . . . . . . . . . . . . .  . . . . . . . . . . . . . .

chorus
e(------------------)
b(------------------)
g(--8-9-9-8h9---8-6-)
d(--8---9-----6-8-6-)
a(--6---7-----6-6-4-)
D(------------6-----)
Tap to rate this tab
# A B C D E F G H I J K L M N O P Q R S T U V W X Y Z