Guitaretab - guitar tabs
Song name
# A B C D E F G H I J K L M N O P Q R S T U V W X Y Z

Vast - Thats My Boy tab

Highlighted       Show chord diagrams
VAST
That's My Boy
Tabbed By GOLDZWEIG

(Acoustic)
    
    G5     A#5     F5
e------------------------------|
B------------------------------|
G------------------------------|
D---5555--6666--3333333--------|
A---5555--6666--3333333--------|
E---3333--8888--1111111--------|

(Electric-Guitar with heavy distortion)
e----------------------------------------------|
B----------------------------------------------|
G-------5-5-----5-5----------------------------|
D---33-0505-33-0505-3333333---7873-------------|
A---33-0303-33-0303-3333333---7873-------------|
E---55--------------1111111---5651-------------|

(Piano Intro)

That's my boy
American son
Hope I'm not around
When he gets the idea
To buy a gun.

G5 A#5 F5  (Listen to the music to get the timing)

That's our boy
America's gone
Hope I'm not to blame
When he gets the idea
To kill someone.

(Electric-Guitar comes in with the same chords of acoustic part)

G5         A#5           F5
How do you ever really love someone?
G5         A#5           F5
How do you ever really love someone?

G5 A#5 F5 (acoustic)
The flag's been broken
By an enemy
Raised on MTV
Raised on you and me 

(Electric-Guitar part)

G5 C5 F5E C5 F5 A5 A#5 A5 F5 (electric-guitar)
How do you ever really love someone?
How do you ever really love someone?
[ Tab from: http://www.guitaretab.com/v/vast/71073.html ]
G5    A#5    F5 (electric-guitar)
Gone, yeah, he's gone
And I have known nothing about you 
Yeah, he's gone
And he's never coming back.

G5 A#5 F5 (acoustic)
Where's our saviour?
I'm looking for a sign 
Just need something to clean
The blood from my numb, weary mind

G5 C5 F5E C5 F5 A5 A#5 A5 F5 (electric-guitar)
How do you ever really love someone?
How do you ever really love someone?

------------------------------Notes------------------------------------------
* The chord A5 can be played in two different ways, but the best way for this song is the second one.

1-  (1) (2) (3) (4) (5)
   |---|---|---|---|---|x 
   |---|---|---|---|---|x
   |---|-x-|---|---|---|
   |---|-x-|---|---|---|
   |---|---|---|---|---|
   |---|---|---|---|---|x    or

2-  (1) (2) (3) (4) (5) (6) (7)
   |---|---|---|---|---|---|---|
   |---|---|---|---|---|---|---|
   |---|---|---|---|---|---|---|
   |---|---|---|---|---|---|-x-|
   |---|---|---|---|---|---|-x-|
   |---|---|---|---|-x-|---|---|

* The chord A#5 can be played in two different ways too, but the best is the 
second one.


1-  (1) (2) (3) (4) (5)
   |---|---|---|---|---|x 
   |---|---|---|---|---|x
   |---|---|-x-|---|---|
   |---|---|-x-|---|---|
   |-x-|---|---|---|---|
   |---|---|---|---|---|x  or

2-  (1) (2) (3) (4) (5) (6) (7) (8)
   |---|---|---|---|---|---|---|---|
   |---|---|---|---|---|---|---|---|
   |---|---|---|---|---|---|---|---|
   |---|---|---|---|---|---|---|-x-|
   |---|---|---|---|---|---|---|-x-|
   |---|---|---|---|---|-x-|---|---| 
Related for Thats My Boy tab