Guitaretab - guitar tabs
Song name
# A B C D E F G H I J K L M N O P Q R S T U V W X Y Z

Vast - Japanese Fantasy tab

VAST
Japanese Fantasy
Tabbed by GOLDZWEIG

Intro

e-----------------------------------|
B---6--1---1--6-8-4-2-4-1-----------|
G--------3--------------------------|
D-----------------------------------| (play it many times)
A-----------------------------------|
E-----------------------------------|

Riff (distorted)
[ Tab from: http://www.guitaretab.com/v/vast/89153.html ]
e---------------------------------------------------------------|
B---------------------------------------------------------------|
G---------------------------------------------------------------|
D----5-77-88-10-10-13-13-11-11-10-10-77-88-10-11-13-10----------|
A----5-77-88-10-10-13-13-11-11-10-10-77-88-10-11-13-10----------|
E----3-55-66-8--8--11-11-9--9--8--8--55-66-8--9--11-8-----------|

Break

e-----------------------------------|
B-----------------------------------|
G-----------------------------------|
D---xxxx-10-xxx-11-13-10------------|
A---xxxx-10-xxx-11-13-10------------|
E---xxxx-8--xxx-9--11-8-------------|

Lyrics:
The rocket ship took me so far away
From the fields where I had lost my way
A million people with a million souls
On a rocket ship that lost control

All I ever wanted was to feel like
I had done something with my life
All I found was you
Related for Japanese Fantasy tab