Song name
# A B C D E F G H I J K L M N O P Q R S T U V W X Y Z

Vast - Evil Little Girl tab

VAST		
Evil Little Girl
Tabbed by GOLDZWEIG

Intro (Acoustic)

Basicly, a G, with some variations in E string
 

e|--3---------3-------3---------3------3-------3--3------3--3-------3-----3-------3------3-----3-------3----|
B|-------3-------3---------3------3---------3-------3---------3-------3-------3-----3------3-----3---3------|
G|-----0---0-------0-----0----------0-----0-----------0---------0-------0---0---0-----0------0-----0--------|
D|----------------------------------------------------------------------------------------------------------|
A|-----------------------------------------------------------------0------3-------------3-------------------|
E|--3-----------------3------2-------2-0--------2------2-3-------3-------------------------------------3----|

Guitar 

e|-----------------------------------------------------|
B|--3---3--1-1h3------------3-1-1h3--------------3-3-1-|
G|----0----------0--3-2-3-0---------0---0-2-3--0-------|
D|-----------------------------------------------------|
A|-----------------------------------------------------|
E|-----------------------------------------------------|

This song is very hard to tab cause it's a lot of elements like violins, piano and cellos

Lyrics:

Why do you stand in the rain
And wait for me?
With dark clothes
Dark thoughts on your mind
you evil little girl

Evil, evil little girl
You were born to make me cry
Who am I to be here right now?
Who am I to be here?

Take my heart
And throw it in a fire
Your mother must have run a school
You were trained to make me cry
Who am I to be here right now?
Who am I to be here?

Evil little girl
You were born to make me cry
Evil little girl
You were born to say goodbye
Evil little girl
You were born to make me cry 

Tap to rate this tab
# A B C D E F G H I J K L M N O P Q R S T U V W X Y Z