Song name
# A B C D E F G H I J K L M N O P Q R S T U V W X Y Z

Vast - Niles Edge tab

VAST
Nile's Edge
Tabbed By GOLDZWEIG

Intro

e|------------|--------0-------|
B|------------|------3---3-----|
G|-------0----|----0-------0---|
D|----4-------|--4-------------|
A|------------|----------------|
E|-0-------3--|----------------|

Break
e|----------0---|-----------0-----|-----------0--|-----------0------|
B|--------------|---------3---3---|--------------|---------3---3----|
G|--------0-----|-----------------|--------0-----|------------------|
D|-----4--------|-----4-----------|-----4--------|-----4------------|
A|--3-----------|-2-------------2-|--0-----------|--0------------2--|
E|--------------|-----------------|--------------|------------------|


Guitar (With some effects)
e|--3-2-3----|
B|---------5-|
G|-----------|
D|-----------|
A|-----------|
E|-----------|



Lyrics:
my name spells joy i can't remember darkness
except a dream
you saved my life
do you wonder what you saw?
floating softly at the niles edge
alone
wandering eyes commitments never can last
it feels so cold
to know our name
i've never known you and i never will
what difference does indifference takes
do you regret what you saw?
floating softly at the niles edge
alone
do you regret, regret what you did?
floating softly at the niles edge
alone 
Tap to rate this tab
 
# A B C D E F G H I J K L M N O P Q R S T U V W X Y Z