Song name
# A B C D E F G H I J K L M N O P Q R S T U V W X Y Z

Vast - Visual Audio Sensory Theater tab

VAST
Album: Visual Audio Sensory Theater


1) Here
Credits to: Patrick McGuire

Drop Db tuning:

Intro:
Strings until distorted bass comes in (1:04):

Gb|--------------------------------|
Db|-0--2----0--2----0--2----0--2---|

Bridge:
Bass root notes:
    C#m       F#maj/A#  F#m/A     C#m/G#    G#maj/C   F#m/A     C#m/G#
 C#m/E
Gb|---------|---------|---------|---------|---------|---------|---------|---------|
Db|-0-------|---------|---------|---------|---------|---------|---------|---------|
Ab|---------|-2-------|-1-------|-0-------|-4-------|-1-------|---------|---------|
Db|---------|---------|---------|---------|---------|---------|-5-------|-3-------|
    (have I been telling lies to myself?...)

C#m       F#maj/A#  F#m/A     C#m/G#    G#maj/C   C#m       F#m/A
 C#m/G#
Gb|---------|---------|---------|---------|---------|---------|---------|---------|
Db|-0-------|---------|---------|---------|---------|-0-------|---------|---------|
Ab|---------|-2-------|-1-------|-0-------|-4-------|---------|-1-------|-0-------|
Db|---------|---------|---------|---------|---------|---------|---------|---------|

Bass:
Gb|----------------|------------------|
Db|-0-0-----2-2----|------------------|
Ab|----------------|--0-0-------------| x4
Db|----------------|-----------3-3----|
   (i looked up and i saw the moon.....)

Back to main riff over scream and play until song ends.

__________________________________________________________________________________________

2)Touched
Credits: Me

Intro

e|-------------------------------------------|
B|-------------------------------------------|
G|-------------------------------------------|
D|-------------------------------------------|
A|--44444-44444-4444-666666------------------|
E|--22222-55555-4444-777777------------------|x12


e|--------------------------|   |--------------------------------------|
B|--------------------------|   |--------------------------------------|
G|--------------------------|   |--9999999-6666-44444444-666-4-2---9-6-|
D|-44444-7777-6666-999999---|   |--9999999-6666-44444444-666-4-2-4-9-6-|
A|-44444-7777-6666-999999---|   |--7777777-4444-22222222-444-2-2-4-7-4-|
E|-22222-5555-4444-777777---|x4 |--------------------------------2-----|

Main Riff
e|--------------------------|
B|--------------------------|
G|--------------------------|
D|-4447-7666-99-------------|
A|-4447-7666-99-------------|
G|-2225-5444-77-------------|

Break

"Oh I, I look into your eyes and saw"...
e|--------------------------------------------|
B|--------------------------------------------|
G|-444444444--00000000------------------------|
D|-444444444--22222222---222222---------------|
A|-222222222--22222222---444444---------------|
E|-----------------------444444---------------|


That's It, Listen to the song to get the timing
__________________________________________________________________________________________

3) Dirty Hole
Credits: Patrick McGuire

Standard Tuning

Intro:
Organ Arr. for Guitar

e|------------|------------|
B|------------|------------|
G|------------|------------|
D|------------|------------| x6
A|------------|------------|
E|--2---0---6-|-5---4---3--|

Chorus Chords: (lately all i want...)

| D/F# | C#sus4 -- C# | Bm | E |

Piano Arr. for Guitar:

e|------------------|------------------|
B|------------------|------------------|
G|--------------3---|-----4-----4------|
D|--4-----2---------|---2-----2-----2--|  x4
A|----4-----4-----4-|-0----------------|
E|------2-----2-----|-------4-----3----|
                    (sleep without a dream...)

Chorus 2

Chain Gang sample, then

Bass:
G|-----------------------|
D|-----------------------|
A|-----------------------|
E|-(12)\2--------(0)/12\-|

Verse 2 Bass Riff:
G|-----------|------------|
D|-----------|------------|
A|-----------|------------|
E|-2---0---6-|-5---4---3--|

Chorus 3

Guitar:
e|---------------------------|
B|---------------------------|
G|-7-----6-----4-------------|
D|-7-----6-----4-------2-----|
A|-5-----4-----2-------2-----|
E|---------------------0-----|

Then:
e|-----------|------------|
B|-----------|------------|
G|-----------|------------|
D|-----------|------------|
A|-----------|------------|
E|-2---0---2-|-5---0---3--|

Chorus 4 (same as chorus 3)

Then Guitar:

e|-----------|------------|
B|-----------|------------|
G|-----------|------------|
D|-----------|------------|
A|-----------|------------|
E|-2---0---6-|-5---4---3--|

Outro:

Piano Arr. for Guitar:

e|--------------6---|-----7-----7------|
B|--7-----5---------|---5-----5-----5--|
G|----6-----6-----6-|------------------|
D|------4-----4-----|-7-----6-----5----| x3
A|------------------|------------------|
E|------------------|------------------|

e|--------------6---|---7-----7-----7--|-6----------|
B|--7-----5---------|---5-----5-----5--|-7----------|
G|----6-----6-----6-|---X-----X-----X--|-6----------|
D|------4-----4-----|---7-----7-----7--|-4----------|
A|------------------|------------------|------------|
E|------------------|------------------|------------|

__________________________________________________________________________________________

4) Pretty When You Cry
Credits: Me

Intro
Bass part:

Part A
G|----------------------------|-----------------------------|
D|----------------------------|-----------------------------|
A|----------------------------|-----------------------------|
E|--0---0-0--0-0--0--0-0--4h5-|--0---0-0--0-0--0--0-0--4h5--|

Part B
G|----------------------------|-----------------------------|
D|----------------------------|-----------------------------|
A|-------------0--0--0-0------|--3--3-3--2--2---------------|
E|--3---3-3--3------------3h5-|-----------------4---4--4-4--|

Chorus:
e|----------------------------------------------------------------|
B|----------------------------------------------------------------|
G|----------------------------------------------------------------|
D|---222222222--5-7-222222222--5-7-55555-7777-5-7-10-10-10-99-666-|
A|---222222222--5-7-222222222--5-7-55555-7777-5-7-10-10-10-99-666-|
E|---000000000--3-5-000000000--3-5-33333-5555-3-5-8--8--8--77-444-|x4

e|--------------------|
B|--------------------|
G|--------------------|
D|--5555-2222222------|
A|--5555-2222222------|
E|--3333-0000000------|

Play this on second half of the chorus
e|---------------------------|-------------------------|
B|--3--3--3--3-5--5--5--5--5-|--3--3--3--3---5-5---5-5-|
G|---------------------------|-------------------------|
D|---------------------------|-------------------------|
A|---------------------------|-------------------------|
E|---------------------------|-------------------------|

__________________________________________________________________________________________

5) I'm Dying
Credits: Patrick McGuire

Standard Tuning

Verse: (organ arr for guitar... also played on guitar LIVE)

  Em        D9+6          Cmaj7          Em/B
|-0---------0-------------0--------------0----|
|-0---------0-------------0--------------0----|
|-9---------7-------------0--------------4----|
|-5---------4-------------2--------------2----|
|-7---------5-------------3--------------2----|
|---------------------------------------------|
 je-sus christ are you the son of God?

      Em     D9+6      Em
|-----0------0---------0-----------|
|-----0------0---------0-----------|
|-----9------7---------0-----------|
|-----5------4---------2-----------|
|-----7------5---------2-----------|
|----------------------0-----------|
I wanna... you ask... believe

  A      C             Em          A/C#   C
|-0------0-------------0-----------0------0-------|
|-2------1-------------0-----------2------1-------|
|-2------0-------------0-----------2------0-------|
|-2------2-------------2-----------2------2-------|
|-0------3-------------2--------2--4------3-------|
|----------------------0--2--3--------------------|
 not..don't compromise your love.. world..killing me...

  A      C
|-0------0------------|
|-2------1------------|
|-2------0------------|
|-2------2------------|
|-0------3------------|
|---------------------|
not... don't know
Clean Riff:
|-----7--7--3-5--0-0---|
|--5-------------------|
|----------------------|
|----------------------|
|----------------------|
|----------------------|
Guitar riff after Orchestral Break:
|-------------------|
|-------------------|
|-------------------|
|-5\2--2--5\2--2----|
|-5\2--2--5\2--2----|
|-3\0--0--3\0--0----|
Main distorted riff:

|---------------------------------|
|---------------------------------|
|---------------------------7-----|
|---------------------------7-----|
|-----1--1------------------5-----|
|--0-------3-5^--0--0--0-0--5-----|
                      |-pm-|

|------------------------------------------|
|------------------------------------------|
|------------------------------------------|
|---5------------8-7---7---7---5-5-5-7-5---|
|---5------------8-7---7---7---5-5-5-7-5---|
|---3-------0-0--6-5---5---5---3-3-3-5-3---|
          |-pm-|             |-pm----------|

__________________________________________________________________________________________

6)Flames
Credits: Patrick McGuire

Standard Tuning

Intro, Verse, Chorus Part A:

e|------0---0-----------0---0-------|-----0---0-----------0---0--------|
B|----------------------------------|----------------------------------|
G|----------------------------------|----------------------------------|
E|----0---0---0---0---0---0---0---0-|---2---2---2---2---2---2---2---0--| x8
A|--2-----------2---2-----------2---|-0-----------0---0-----------0----|
E|----------------------------------|----------------------------------|

Chorus Part B:
e|------0---0-----0-----0---0-----0-|-----0---0-----0-----0---0-----0--|
B|------------3---------------3-----|-----------3---------------3------|
G|--------------0---------------0---|---2---2-----2---------------2----|
D|----------------------------------|-0-----------------2---2----------| x2
A|----2---2-----------2---2---------|-----------------0----------------|
E|--0---------------3---------------|----------------------------------|

Then,
Part A- x2
Part B- x4
Part A- x2
Then outro

Outro:
e|------0---3p0-----------7p3-------------0-10h5---------------0------|
B|--------------3-------------5---5-----3--------5-3-----2---3---3p2--|
G|----------------0-------------0-----2-------------------------------|
D|----------------------0-----------0------------------2---2----------|
A|----2---2-----------2------------------------------0----------------|
E|--0---------------3-------------------------------------------------|
Play this until end

__________________________________________________________________________________________

7)Temptation
Credits: Patrick McGuire

Standard Tuning

Acoustic Guitar Riff 1:

e|---------------------|
B|---------------------|
G|-2--2-2----2--2-2----|
D|-2--2-2----2--2-2----|
A|-0--0-0----0--0-0----|
E|--------3---------3--|

(note: while strumming use your index and middle fingers for the chord
and slap the G with your ring finger)

Riff 2:
Distorted Guitar:            Guitar cuts out and bass finishes phrase:

e|--------------------------------------------------|
B|--------------------------------------------------|
G|-------------------| x3    G|---------------------|
D|------7--7-7-5--7--|       D|---------------------|
A|-(3)--7--7-7-5--7--|       A|-3-6------5----3-----|
E|------5--5-5-3--5--|       E|---------------------|

The (3) is played on bass

Prechorus-
Bass:

G|----------------|-----------------|
D|----------------|-----------------|
A|----------------|-----------------|
E|-3-------2------|-6--------5------|
(I stand alone- now I stand alone...)

G|----------------|-----------------|
D|----------------|-0---------------|
A|-3--------------|-----------------|
E|---------3------|-----------------|
  (Can you save.... myself?)

Chorus:
Play Riff 1 over this:

G|------------|         |--------------|---------------|
D|------------|  X4     |--------------|---------------| x2
A|-0--0-0--0--|         |-3------------|/5-------------|
E|------------|         |--------------|---------------|
   (you... )             (To- do what I knew is wrong)

__________________________________________________________________________________________

8) Three Doors
Credits: Patrick McGuire

Tunning: Drop D

Main riff:
(intro is full chords.. distorted riff is the same, but just the octaves)

e|---0--0-0-0-0-0-|-0---0-0--0--0--0----0--0--|
B|---0--0-0-0-0-0-|-0---0-0--0--0--0----0--0--|
G|--10-10-9-9-8-8-|-9---9-9-10-10-13---13-13--|  x2
D|---X--X-X-X-X-X-|-X---X-X--X--X--X----X--X--|
A|---8--8-7-7-6-6-|-7---7-7--8--8-11---11-11--|
D|----------------|---------------------------|

e|---0--0-0-0-0-0-|-0---0-0--0--0--0----0--0--0----0--0-|------------------------|
B|---0--0-0-0-0-0-|-0---0-0--0--0--0----0--0--0----0--0-|------------------------|
G|--10-10-9-9-8-8-|-9---9-9-10-10-16---16-16-14---14-14-|-13/14\13-----13/14\13--|
D|---X--X-X-X-X-X-|-X---X-X--X--X--X----X--X- X----X--X-|--X--X--X------X--X--X--|
A|---8--8-7-7-6-6-|-7---7-7--8--8-14---14-14-12---12-13-|-11/12\11-----11/12\11--|
D|----------------|-------------------------------------|-----------14-----------|


e|---0--0-0-0-0-0-|-0---0-0--0--0--0----0--0--|
B|---0--0-0-0-0-0-|-0---0-0--0--0--0----0--0--|
G|--10-10-9-9-8-8-|-9---9-9-10-10-13---13-13--|  x2
D|---X--X-X-X-X-X-|-X---X-X--X--X--X----X--X--|
A|---8--8-7-7-6-6-|-7---7-7--8--8-11---11-11--|
D|----------------|---------------------------|


e|---0--0-0-0-0-0-|-0---0-0--0--0--0----0--0--0----0--0-|------------------------|
B|---0--0-0-0-0-0-|-0---0-0--0--0--0----0--0--0----0--0-|------------------------|
G|--10-10-9-9-8-8-|-9---9-9-10-10-16---16-16-14---14-14-|-13/14\13---------------|
D|---X--X-X-X-X-X-|-X---X-X--X--X--X----X--X- X----X--X-|--X--X--X-----13/14\13--|
A|---8--8-7-7-6-6-|-7---7-7--8--8-14---14-14-12---12-13-|-11/12\11-----13/14\13--|
D|----------------|-------------------------------------|----------14--13/14\13--|

Then same riff above with distortion x2


e|-------------------------------|----------------------------------|
B|-------------------------------|----------------------------------|
G|-------------------------------|----------------------------------|
D|--2-2-2-2-5p4-2-----2-2-5p4-2--|--2-2-2-2-5p4-2-----2-2-5p4-2-----| x2
A|--2-2-2-2-5p4-2-----2-2-5p4-2--|--2-2-2-2-5p4-2-----2-2-5p4-2-----|
D|--2-2-2-2-5p4-2-----2-2-5p4-2--|--2-2-2-2-5p4-2-----2-2-5p4-2-----|
   |-pm----|        |-pm-|         |-pm----|        |-pm------------|

Verse:
    E5                              A5
e|-------------------------------|-------------------------------|
B|-------------------------------|-------------------------------|
G|-------------------------------|-------------------------------|
D|--2-2-2-2-5p4-2-----2-2-5p4-2--|--7-7-7-7-5h7-7-----7-7-5h7-7--| x4
A|--2-2-2-2-5p4-2-----2-2-5p4-2--|--7-7-7-7-5h7-7-----7-7-5h7-7--|
D|--2-2-2-2-5p4-2-----2-2-5p4-2--|--7-7-7-7-5h7-7-----7-7-5h7-7--|
(*-similarly palm mute through verse)

Chorus:
    E5          F5          G5          E5
e|-----------|-----------|-----------|----------|
B|-----------|-----------|-----------|----------|
G|--9--------|-----------|-----------|----------|
D|--9--------|--5--------|--7--------|--2-------|
A|--7--------|--5--------|--7--------|--2-------|
D|-----------|--5--------|--7--------|--2-------|

    G5          F#5         A5          E5    C5      B5      A5          E5
e|-----------|-----------|-----------|------------------------|------|----------|
B|-----------|-----------|-----------|------------------------|------|----------|
G|-----------|-----------|-----------|--------5-5-5-5-4-4-4-4-|-2----|----------|
D|--5--------|--4--------|--7--------|--2-----5-5-5-5-4-4-4-4-|-2----|----------|
A|--5--------|--4--------|--7--------|--2-----3-3-3-3-2-2-2-2-|-0----|----------|
D|--5--------|--4--------|--7--------|--2---------------------|------|------2---|
                                              Because........only one leads to...


Bridge:

e|-----------------------------------------------|
B|-----------------------------------------------|
G|-----------------------------------------------|
D|-----------------------------------------------|
A|-----------------------------------------------|
D|--2-2-2-2-2-2-5---4---5p4-0---2-2-2-2-5p4-0-0--|

   |-----  pm  --------------------------------|


Last riff of bridge before chorus:

e|----------------------------------------------------------------|
B|----------------------------------------------------------------|
G|----------------------------------------------------------------|
D|--2-2-2-2-2-2-5---4---5p4-----2-2-2-2-5-7-7-7--7-7-7-7h8p7-5-7--|
A|--------------------------5-------------------------------------|
D|----------------------------------------------------------------|

__________________________________________________________________________________________

9) Nile's Edge
Credits: Chris Teuma (fendlerhunstonog@icqmail.com)

Intro
e|------------|--------0-------|
B|------------|------3---3-----|
G|-------0----|----0-------0---|
D|----4-------|--4-------------|
A|------------|----------------|
E|-0-------3--|----------------|

this is the second part (chorus... whatever)

e|----------0---|-----------0-----|-----------0--|-----------0------|
B|--------------|---------3---3---|--------------|---------3---3----|
G|--------0-----|-------0---------|--------0-----|-------0----------|
D|-----4--------|-----4-----------|-----4--------|-----4------------|
A|--3-----------|-2-------------2-|--0-----------|--0------------2--|
E|--------------|-----------------|--------------|------------------|
   Do  -   you    wonder what you  - saw                    floating

e|----------0---|-----------0-----|-----------0--|-----------0------|
B|--------------|---------3---3---|--------------|---------3---3----|
G|--------0-----|-------0---------|--------0-----|-------0----------|
D|-----4--------|-----4-----------|-----4--------|-----4------------|
A|--3-----------|-2-------------2-|--0-----------|--0------------2--|
E|--------------|-----------------|--------------|------------------|
  softly    -  at the nile's  -  edge              -          alone

the second chorus is slightly different.
the first two bars are power chords (C and B).
the third and fourth bars are the same as the first chorus, but with a different rhythm.

then that hook near the end, which sounds like electric guitar with some effects,
but could be anything.

e|-------------|----------12-------|
B|-------------|-------15----15----|
G|-12----12----|----12----------11-|
D|----16----14-|-14----------------|
B|-------------|-------------------|
E|-------------|-------------------|

__________________________________________________________________________________________

10) Somewhere else to Be
Credits:Patrick McGuire

Guitar:

|----------------------------|-----------------------|
|----------------------------|-----------------------|
|-5--5-5-8--8-8--8-8-8-8-7-5-|-5---------------3--5--|
|-X--X-X-X--X-X--X-X-X-X-X-X-|-X---8----8--8-5-X--X--|
|-3--3-3-6--6-6--6-6-6-6-5-3-|-3---X----X--X-X-1--3--|
|----------------------------|-----6----6--6-3-------|

Bridge:

Bass:
|--------------------1------0---------|
|-1----3----0----1-----------------3--|
|-------------------------------------|
|-------------------------------------|
   I wish I could run from everything....


Chorus:

Just Bass:
|---------|----------|-----------|
|---------|----------|-----------|
|-3----1--|--3----1--|--0--------|
|---------|----------|-------3---|
somewhere...         in.. out..  that's all I...

Then add Guitar:
|--------------------------|
|--------------------------|
|-5-8-----------5-8---5-8--|
|-X-X-----------X-X---X-X--|
|-3-6---3-6p3---3-6---3-6--|
|--------------------------|
..need.


That's the basic outline of the song...

__________________________________________________________________________________________

11) Untitled
Credits: Me

Standard Tuning

Main Guitar riff:

|------------------------------------------------------------|
|------6-------3------5------3------4------3-----3-----3-----|
|---------5-------------5-------------5------------2---------|
|----5------5-------5-----5------5------5------3-----3-------|
|------------------------------------------------------------|
|------------------------------------------------------------|


Bass:

|--------------------------------------------------------|
|-----------------------------1-----1-1----/8-----8-8----|
|-3-----3-3-----3-----3-3--------------------------------|
|--------------------------------------------------------|

__________________________________________________________________________________________

12) You
Credits:Patrick McGuire

Standard Tuning
*This is just a simple riff played throughout
the song using a tempo delay.

Opening Guitar riff:
|--------------------------------|
|-3-4-3-6--4---3--4---3-6--4--3--|
|--------------------------------|
|--------------------------------|
|--------------------------------|
|--------------------------------|

Last riff:
|--------------------------------|
|--------------------------------|
|--------------------------------|
|-0-1-2-4--2---1--2---1-4--2--1--|
|--------------------------------|
|--------------------------------|

__________________________________________________________________________________________

Well, that's it
This album is fuckin genious, Jon Crosby is a great songwriter and singer.
Some tabs here are made by me, and some i found in an old VAST fan site -> http://www.xeternity.com/guitartabs.html

I made some tabs for VAST songs, of different albuns, and put them here in ultimate-guitar.
Look for GOLDZWEIG
Thanks, and I hope VAST becomes a famous band!
VAST Rules!!!!!!!!
Tap to rate this tab
# A B C D E F G H I J K L M N O P Q R S T U V W X Y Z