Song name
# A B C D E F G H I J K L M N O P Q R S T U V W X Y Z

Vatreni Poljubac - Tike Tike Tacke tab

E----------------------------------------------------------|
H----------------------------------------------------------|
G----------------------------------------------------------|
D----------------------------------------------------------|
A--------0-3-0---5--------3-0---------0-3-0---5--------3---|
E--0-3-5------------0-3-5-------0-3-5------------0-3-5-----|


Svaki put se zamislim i uhvati me jad
Kad prosetam kroz ono sto je nekad bio grad
Shvatam zasto ljudi sada mahom odlaze i sele
Jer ne mogu vise da gledaju podvrnute pele
Koji ne samo da su oko zgrade pocupali cvece
vec na isto mjesto sa prozora pobacali smece
Ali avaj sta ces s asvaltom tesko se barata
vala teze su mi od granata posljedice rata...


ref:
   Tike-tike   Nema vise  Tike-tike
     tacke      vracke      tacke     oo---ooooo
E------------------------------------------------------|
H------------------------------------------------------|
G--------------------------------------7---2-----------|
D--------------------------------------7---2-----------|
A--7/9-9-9-9---7/9-9-9-9---7/9-9-9-9---5---0-----------|
E--5/7-7-7-7---5/7-7-7-7---5/7-7-7-7-------------------|

Intro

Solo:
         ~          ~                            ~~
E------------------------------------------------------|
H--5-------------------------------------5-------------|
G----7-5------------5------------5----7b9--7^5---5-----|
D--------7--5-7-7-7---7--5-7-7-7---7-----------7-------|
A------------------------------------------------------|
E------------------------------------------------------|

Ponoviti jednom, a zatim isto to samo za oktavu vise.
Tap to rate this tab
# A B C D E F G H I J K L M N O P Q R S T U V W X Y Z