Song name
# A B C D E F G H I J K L M N O P Q R S T U V W X Y Z

Vaux - Are You With Me tab

First guitar: (This bar starts after a full measure of eighth notes on second guitar's 
note:
G|-7-7-7-7-7-7-7-7|
D|-5-5-5-5-5-5-5-5|
A|-5-5-5-5-5-5-5-5|

   E Q Q Q E E Q Q Q E E Q Q Q E E E E E E E E E
E|-----0---------1---------0--------------------|
B|---3---3-3---3---3-3---3---3-3---3---3---3---3|
G|-2---------2---------2---------3---3---2---2--|
D|----------------------------------------------|
A|----------------------------------------------|
E|----------------------------------------------| Repeat (God knows how many more times)

Second guitar:

   E E E E E E E E E E E E E E E E
E|--------------------------------|
B|--------------------------------|
G|-7-7-7-7-7-7-7-7-7-7-7-7-8-8-8-8|
D|-7-7-7-7-7-7-7-7-7-7-7-7-8-8-8-8|
A|-5-5-5-5-5-5-5-5-5-5-5-5-6-6-6-6|
E|--------------------------------|

   E E E E E E E E E E E E E E E E
E|--------------------------------|
B|--------------------------------|
G|-5-5-5-5-5-5-5-5-5-5-5-5-6-6-6-6|
D|-5-5-5-5-5-5-5-5-5-5-5-5-6-6-6-6|
A|-3-3-3-3-3-3-3-3-3-3-3-3-4-4-4-4|
E|--------------------------------|Repeat for who knows how long

E = Eighth note
Q = Quarter note

Tempo is approx. 140-144.

Tabbed it in 7 minutes based on their live video. I'm working on the whole song now, 
And this is my first tab.
Tap to rate this tab
 
# A B C D E F G H I J K L M N O P Q R S T U V W X Y Z