Guitaretab - guitar tabs
Song name
# A B C D E F G H I J K L M N O P Q R S T U V W X Y Z

Vaya Con Dios - Nah Neh Nah tab

Title     : Nah Neh Nah
Artist    : Vaya Con Dios
Album     : Night Owls
Capo      : none
Setting   : E-A-D-G-B-E
Tabbed by : 
-------------------------------------------------

Als Er In Een Stuk geen Akkoorden Staan Zijn Die Hetzelfde Als in Een Eerder
Stuk Je Hoort Vanzelf Welk Akkoorden Schema Er Bij De Niet Geakkoneerde Stukken Moeten....Have Fun...Dre

C# = -9-11-11-10-9-9- 
F#m = -X-9-11-11-10-9-
B = -7-9-9-8-7-7-

--- - Fade out
h   - Hammer on
p   - Pull of

Maat: 4\4


Vaya Con Dios - Neh Nah Neh



Intro: C#---
       F#m | % | C# | % | 2x

      F#m
I got on the phone

and called the girls said

meet me down at curly pearls
     C#
for a ney nah neh nah, ney nah neh nah
      F#m
in my high heeled shoes and fancy fads

i ran down the stairs halled me a cab going
 C#
ney nah neh nah, ney nah neh nah, 

ney nah neh nah, ney nah neh nah,
         B
ohh Nah ney nah neh nah, ney nah neh nah, 
       C#
la la laa

When I pushed the door I saw eleanor
and mary lou swinging on the floor
going ney nah neh nah, ney nah neh nah, sue came in
in a silk sarong
she walzed across as they played that song going 
ney nah neh nah, ney nah neh nah, 
ney nah neh nah, ney nah neh nah,
ohh Nah ney nah neh nah, ney nah neh nah, 
la la laa

Solo: 
e|--------------------------------|--------------------------------|
B|--------------------------------|--------------------------------|
G|--------------------------------|--------------------------------|
D|--------------------------------|--------6-----------------------|
A|----------------------4-5-------|----8-9---------4---5---6---8---|
E|--------------------7-------4-5-|7-------------------------------|

  F#m
e|--------------------------------|--------------------------------|
B|--------------------------------|--------------------------------|
G|--------------------------------|6---------------------5-6-7-6-4-|
D|--------------6-7---7---7-6-7-9-|--------------------------------|
A|9---9---9-8-9-------------------|--------------------------------|
E|--------------------------------|--------------------------------|
[ Tab from: http://www.guitaretab.com/v/vaya-con-dios/74317.html ]
  C#
e|--------------------------------|7--10h9-7-5---------------------|
B|------------------------------7-|------------9-7-6---8h9---------|
G|6-------------------------6-7---|------------------------6-------|
D|----9---9---8---9-------9-------|--------------------------------|
A|--------------------------------|--------------------------------|
E|--------------------------------|--------------------------------|
 
  F#m
e|5-------5-------5---------------|---------------7-9--------------|
B|--------------------------------|7-6-7-9-10-9-10-----------------|
G|--------------------------------|--------------------------------|
D|--------------------------------|--------------------------------|
A|--------------------------------|--------------------------------|
E|--------------------------------|--------------------------------|

  C#
e|--------------------------------|--------------------------------|
B|10--9---9---8---9-----------6-7-|9-------------------------------|
G|--------------------------------|----------6-7-------------------|
D|--------------------------------|--------9-------6-7-9---6-6-----|
A|--------------------------------|----------------------------9-9-|
E|--------------------------------|--------------------------------|


e|-------------------------------|----7-10-9-7---------------------|
B|-------------------------------|6-9------------10h12p11--9h10p9--|
G|-----------------------------7-|---------------------------------|
D|---6---------------------6-9---|---------------------------------|
A|-----------------------8-------|---------------------------------|
E|-------9------10-9-8-9---------|---------------------------------|

     B
e|--------------------6-9---------|------6-7-------9-7-------------|
B|------------------9-----------7-|6-8-9---------------10----------|
G|--------------8-9---------6-8---|------------------------8-------|
D|----------8-9-----------8-------|--------------------------9-8-6-|
A|----6---------------------------|--------------------------------|
E|--------------------------------|--------------------------------|
 
                                   C
e|--------------------------------|--------------------------------|
B|--------------------------------|----------------10------9-------|
G|--------------------------------|------------7-------------------|
D|7---6---9-----------------------|--------7-9---------------------|
A|--------------------------------|--5-8---------------------------|
E|--------------------------------|7-------------------------------|


Annie was a little late 
She had to get out of a date with a 
Ney, Nah Neh Nah Ney, Nah Neh Nah
Curly fixed another drink 
As the piano man began to sing that song 
ney nah neh nah, ney nah neh nah, 
ney nah neh nah, ney nah neh nah,
ohh Nah ney nah neh nah, ney nah neh nah, 
la la laa

It was already half past three 
But the night was young and so were we, 
dancing 
Ney, Nah Neh Nah Ney, Nah Neh Nah
Oh Lord, did we have a ball 
Still singing, walking down that hall, that
ney nah neh nah, ney nah neh nah, 
ney nah neh nah, ney nah neh nah,
ohh Nah ney nah neh nah, ney nah neh nah, 
la la laa
Related for Nah Neh Nah tab