Veara - Better Off Without You tab

Made by Quinten 

For more information mail me: quinten_johan55@hotmail.com


Artist: Veara
album: What we left behind
 

-------------------------------------------------------------------------------------------

Intro:


E-------| ---------|
B-------| ---------|
G-------| ---------|
D-------| ---------|
A--3----| --3------|
E--0----| --1------|


Couplet:  2x


E------|------|------|------|  ------|------|------|  -------------|
B------|------|------|------|  ------|------|------|  -------------|
G------|------|------|------|  ------|------|------|  -------------|
D--2---|------|--5---|------|  --2---|------|--5---|  -------------|
A--0---|--3---|--3---|--5---|  --0---|--3---|--3---|  --5-7-3-3----|
E------|--1---|------|--3---|  ------|--1---|------|  --3-5-0-1----|


Solo:


E---------|-------------|----------------------|
B------5--|-----5-------|-----5----------------|
G--5-7----|-5-7------5--|-5-7---5-7-5---5------|
D---------|--------7----|-------------7---7----|
A---------|-------------|----------------------|
E---------|-------------|----------------------|
Tap to rate this tab
 
# A B C D E F G H I J K L M N O P Q R S T U V W X Y Z