Song name
# A B C D E F G H I J K L M N O P Q R S T U V W X Y Z

Veara - We Have A Body Count tab

Intro: Guitar 1 (Part 1) 
|-------------------------------------------------------------------|
|-------------------------------------------------------------------|
|-------------------------------------------------------------------|
|-------7---------7---------------------7---------7-----------------|x2
|---5-5---5-7-5-5---5-7-5-5-7-9-7-5-5-5---5-7-5-5---5-7-5-5-5-7/9---|
|-------------------------------------------------------------------|
 (Part 2) 
|-------------------------------------------------------------------|
|-------------------------------------------------------------------|
|-------7---------7---------------------7---------7-----------------|
|-----------7---------7-----7-9-7\5---------7---------7-----5-7/9---|x2
|---5-5---5---5-5---5---5-5---------5-5---5---5-5---5---5-5---------|
|-------------------------------------------------------------------|

Intro: Guitar 2 (Part 1) 
|-----------------------------------------------------|
|-----------------------------------------------------|
|-----------------------------------------------------|
|---0-0-0-0-0---0-0--0-0---0-0-0-0-0---5-5-5--7-7-7---|x2
|---0-0-0-0-0---0-0--0-0---0-0-0-0-0---5-5-5--7-7-7---|
|---0-0-0-0-0---0-0--0-0---0-0-0-0-0---5-5-5--7-7-7---|
 PM * * * *     *    *     * * * *   

(Part 2) 
|------------------------------------------------|
|------------------------------------------------|
|------------------------------------------------|
|---0-0-0-0-0---0-0---0-0-0-0-0---5-5-5--7-7-7---|x2
|---0-0-0-0-0---0-0---0-0-0-0-0---5-5-5--7-7-7---|
|---0-0-0-0-0---0-0---0-0-0-0-0---5-5-5--7-7-7---|
 PM * * * *     * *   * * * * 




Verse: Guitar 1&2 (Part 1)
|-------------------------------------------------------------|
|-------------------------------------------------------------|
|-------------------------------------------------------------|
|---0-0~-0-0-0~-0-0-0~-0-0-0~-0-9-9~-9-9-9~-9-5-5~-5-5-5~-5---|
|---0-0~-0-0-0~-0-0-0~-0-0-0~-0-9-9~-9-9-9~-9-5-5~-5-5-5~-5---|
|---0-0~-0-0-0~-0-0-0~-0-0-0~-0-9-9~-9-9-9~-9-5-5~-5-5-5~-5---|

(Part 2)
|-----------------------------------------------------|
|-----------------------------------------------------|
|-----------------------------------------------------|
|---0-0--0-0--0-0-0--0-0--0-9-9--9-9--9-5--5-5--5-5---|
|---0-0--0-0--0-0-0--0-0--0-9-9--9-9--9-5--5-5--5-5---|
|---0-0--0-0--0-0-0--0-0--0-9-9--9-9--9-5--5-5--5-5---|
 PM * *  * *  * * *  * *  * * *  * *  *    * *  

(Part 3)
|-------------------------------------|
|-------------------------------------|
|-------------------------------------|
|---0-----9-9-9-9-9-9--9--------------|
|---0-x16-9-9-9-9-9-9--9--5-7/9\7-5---|
|---0-----9-9-9-9-9-9--9--------------|
 PM *     * *   * *


Pre Chorus: Guitar 1&2
|--------------------|
|--------------------|
|--------------------|
|---0-----9--9-\-5---|
|---0-x16-9--9-\-5---|
|---0-----9--9-\-5---|



Chorus: Guitar 1&2
|--------------------------------------------|
|--------------------------------------------|
|--------------------------------------------|
|---0-0-0---0~~~~~-9-9-9--9-9-9-5-5-5--5-5---|x2
|---0-0-0---0~~~~~-9-9-9--9-9-9-5-5-5--5-5---|
|---0-0-0---0~~~~~-9-9-9--9-9-9-5-5-5--5-5---|



After Chorus: Guitar 1 (Guitar 2 plays Intro)
|-----------------------------------------------------------------|
|-----------------------------------------------------------------|
|-----------------------------------------------------------------|
|-----------------------------------------------------------------| x2
|-------9---5-----9---5-----5-7-5-----9---5-----9---5-----5-7/9---|
|---0-0---0---0-0---0---0-0-------0-0---0---0-0---0---0-0---------|
 PM * *   *   * *   *   * *       * *   *   * *   *   * *


Verse 2: Guitar 1&2 (Not to sure about this part, but this what i play)
(Part 1)
|----------------------------------------------------------------|
|----------------------------------------------------------------|
|---7-7-7--9-9-9--11/12--11/12--11\9--7/9--7-7-7--9-9-9----------|
|---x-x-x--x-x-x--x-/x---x-/x---x-\x--x/x--x-x-x--x-x-x--0-------|
|---5-5-5--7-7-7--9-/10--9-/10--9-\7--5/7--5-5-5--7-7-7--0-x16---|
|--------------------------------------------------------0-------|

(Part 2)
|---------------------------------------------------------|
|---------------------------------------------------------|
|---7-7-7--9-9-9--11/12--11/12--11\9--7/9--7-7-7--9-9\6---|
|---x-x-x--x-x-x--x-/x---x-/x---x-\x--x/x--x-x-x--x-x\x---|
|---5-5-5--7-7-7--9-/10--9-/10--9-\7--5/7--5-5-5--7-7\4---|
|---------------------------------------------------------|


CHORUS!!!

Bridge: Guitar 1 (I think thats what its called)
|-------------------------------------------------------------------|
|-------------------------------------------------------------------|
|-------------------------------------------------------------------|
|-------------------------------------------------------------------|
|-------------------------------------------------------------------|
|---0-0-4-0-2-0-0-4-0-2-0-0-2-4-2-0-0-0-4-0-2-0-0-4-0-2-0-0-2-4-5---|
(Play Guitar 1 till the end)

Guitar 2
|----------------------------------------------------|
|----------------------------------------------------|
|----------------------------------------------------|
|---0-0-0--0-0--0-0--0-0--0-0-0--0-0--5-5-5--4-4-4---|x2
|---0-0-0--0-0--0-0--0-0--0-0-0--0-0--5-5-5--4-4-4---|
|---0-0-0--0-0--0-0--0-0--0-0-0--0-0--5-5-5--4-4-4---|
 PM * *         *    *    * *
        (2nd time playing stop here ^^)



End: Guitar 2 (Part 1)(Guitar 1 still plays Bridge)
|---------------------------------------------------|
|---------------------------------------------------|
|---------------------------------------------------|
|---0000-0--0-0-00-0-00-0--0000-0--0-0--5-5-5-4-4---|
|---0000-0--0-0-00-0-00-0--0000-0--0-0--5-5-5-4-4---|
|---0000-0--0-0-00-0-00-0--0000-0--0-0--5-5-5-4-4---|
 PM ****        **   **    ****

(Part 2)
|--------------------------------------------|
|--------------------------------------------|
|--------------------------------------------|
|---0-0--0-0~~~-0-0--0-0~~~-5-5-5-4-4-4-5^---|
|---0-0--0-0~~~-0-0--0-0~~~-5-5-5-4-4-4------|
|---0-0--0-0~~~-0-0--0-0~~~-5-5-5-4-4-4------|
 PM * *  *      * *  *          

Thank You for reading my tab.
Ill Submit more Veara tabs when i learn more of their songs :D
Tap to rate this tab
 
# A B C D E F G H I J K L M N O P Q R S T U V W X Y Z