Song name
# A B C D E F G H I J K L M N O P Q R S T U V W X Y Z

Veer Union - Darker Side Of Me tab

Artist: The Veer Union
Song: Darker Side of Me
E-mail: Shawnjg36@aol.com or ShawnNjohnproduction@yahoo.com

Tuning: Drop C (CGCFAD)

Intro:

D|-----------------------------------------------------------|
A|-----------------------------------------------------------|
F|-----------------------------------------------------------|
C|-----------------------------------------------------------|    x5
G|--------------1111--3333---------------1111--3333----------|
C|---00000000------------------00000000----------------------|

D|-----------------------------------------------------------|
A|-----------------------------------------------------------|
F|-----------------------------------------------------------|
C|-----------------------------------------------------------|
G|-----------------------------------------------------------|
C|---55555555----88888888------------------------------------|

D|-----------------------------------------------------------|
A|-----------------------------------------------------------|
F|-----------------------------------------------------------|
C|---55555555---88888---1010---------------------------------|
G|---55555555---88888---1010---------------------------------|
C|---55555555---88888---1010---------------------------------|
     xxxxxxxx   xxxxx
Chorus:
D|-----------------------------------------------------------|
A|-----------------------------------------------------------|
F|-----------------------------------------------------------|
C|------------------88888888---55555555---8888---1010--------|  x2
G|--5----5----5-----88888888---55555555---8888---1010--------|
C|----00---00---0---88888888---55555555---8888---1010--------|

D|-----------------------------------------------------------|
A|-----------------------------------------------------------|
F|-----------------------------------------------------------|
C|--0-00-----8--88-------------------------------------------|
G|--0-00-----8--88-------------------------------------------|
C|--0-00-----8--88-------------------------------------------|

D|-----------------------------------------------------------|
A|-----------------------------------------------------------|
F|-----------------------------------------------------------|
C|-----------------------------------------------------------|
G|--------------1111--3333---------------1111--3333----------|
C|---00000000------------------00000000----------------------|

D|-----------------------------------------------------------|
A|-----------------------------------------------------------|
F|-----------------------------------------------------------|
C|-----------------------------------------------------------|
G|-----------------------------------------------------------|
C|---55555555----88888888------------------------------------|

D|-----------------------------------------------------------|
A|-----------------------------------------------------------|
F|-----------------------------------------------------------|
C|---55555555---88888---1010---------------------------------|
G|---55555555---88888---1010---------------------------------|
C|---55555555---88888---1010---------------------------------|
     xxxxxxxx   xxxxx
Chorus:

D|-----------------------------------------------------------|
A|-----------------------------------------------------------|
F|-----------------------------------------------------------|
C|------------------88888888---55555555---8888---1010--------|
G|--5----5----5-----88888888---55555555---8888---1010--------|
C|----00---00---0---88888888---55555555---8888---1010--------|

D|------------------------------------------------------------|
A|------------------------------------------------------------|
F|------------------------------------------------------------|
C|--0-00--8--88--10--0-00--8-88--10--0-00--8--88-10-5-55-8-10-|
G|--0-00--8--88--10--0-00--8-88--10--0-00--8--88-10-5-55-8-10-|
C|--0-00--8--88--10--0-00--8-88--10--0-00--8--88-10-5-55-8-10-|

D|-----------------------------------------------------------|
A|-----------------------------------------------------------|
F|-----------------------------------------------------------|
C|-----------------------------------------------------------|  x2
G|-----------------------------------------------------------|
C|-0-10-12-0-10-12-0-10-8-00-8-00-8-10-0-5-7-0-5-7-0-7-0-7-8-|

D|-----------------------------------------------------------|
A|-----------------------------------------------------------|
F|-----------------------------------------------------------|
C|-----------------------------------------------------------|  x2
G|-----------------------------------------------------------|
C|--0-7-8-99-------------------------------------------------|

D|-----------------------------------------------------------|
A|-----------------------------------------------------------|
F|-----------------------------------------------------------|
C|--8----55555555---8888--1010-------------------------------|
G|--8----55555555---8888--1010-------------------------------|
C|--8----55555555---8888--1010-------------------------------|
         xxxxxxxx   xxxx

D|-----------------------------------------------------------|
A|-----------------------------------------------------------|
F|-----------------------------------------------------------|
C|------------------88888888---55555555---8888---1010--------|
G|--5----5----5-----88888888---55555555---8888---1010--------|
C|----00---00---0---88888888---55555555---8888---1010--------|

D|-----------------------------------------------------------|
A|-----------------------------------------------------------|
F|-----------------------------------------------------------|
C|------------------8888--10101010---------------------------|  x3
G|--5----5----5-----8888--10101010---------------------------|
C|----00---00---0---8888--10101010---------------------------|

D|-----------------------------------------------------------|
A|-----------------------------------------------------------|
F|-----------------------------------------------------------|
C|---55555555---88888---1010---------------------------------|
G|---55555555---88888---1010---------------------------------|
C|---55555555---88888---1010---------------------------------|

D|-----------------------------------------------------------|
A|-----------------------------------------------------------|
F|-----------------------------------------------------------|
C|-----------------------------------------------------------|  x2
G|-----------------------------------------------------------|
C|-0-10-12-0-10-12-0-10-8-00-8-00-8-10-0-5-7-0-5-7-0-7-0-7-8-|

D|-----------------------------------------------------------|
A|-----------------------------------------------------------|
F|-----------------------------------------------------------|
C|-----------------------------------------------------------|  x2
G|-----------------------------------------------------------|
C|--0-7-8-99-------------------------------------------------|
Tap to rate this tab
# A B C D E F G H I J K L M N O P Q R S T U V W X Y Z