Song name
# A B C D E F G H I J K L M N O P Q R S T U V W X Y Z

Veer Union - Seasons tab

                          Seasons- The Veer Union

Tabbed By: Shawn Gomez (SCA528)

E-mail: Shawnjg36@aol.com or Shawnnjohnproduction@yahoo.com

Tab difficulty: novice


Tuning: Db Ab Db Gb Bb Eb

Intro:

Eb|----------------------------------------------|
Bb|----~----------~------------------------------|
Gb|----7----------7------------------------------|
Db|----7----------7------------------------------|
Ab|----5----------5------------------------------|
Db|----------------------------------------------|

Eb|---------------------------------------------|
Bb|---------------------------------------------|
Gb|---------------------------------------------|
Db|--/888888888888888-----10101010101010101010--|
Ab|--/888888888888888-----10101010101010101010--|
Db|--/888888888888888-----10101010101010101010--|
      xxxxxxxxxxxxxxx
Eb|---------------------------------------------|
Bb|---------------------------------------------|
Gb|---------------------------------------------|
Db|---------------------------------------------|   x4
Ab|---------------------------------------------|
Db|0-10-12-1212-0-10-12-1212-12-101010----------|

Eb|---------------------------------------------|
Bb|---------------------------------------------|
Gb|---------------------------------------------|
Db|---------------------------------------------|   x4 Palmmute
Ab|---------------------------------------------|
Db|0-10-12-1212-0-10-12-1212-12-101010----------|
   x xx xx xxxx x xx xx xxxx xx xxxxxx

Eb|---------------------------------------------|
Bb|---------------------------------------------|
Gb|---------------------------------------------|
Db|---888888888888888-----10101010101010101010--|
Ab|---888888888888888-----10101010101010101010--|
Db|---888888888888888-----10101010101010101010--|

Eb|--17------15------17------15------15----15-17-|
Bb|-----1515----1515----1515----1515----18-------|
Gb|----------------------------------------------|
Db|----------------------------------------------|
Ab|----------------------------------------------|
Db|----------------------------------------------|

Eb|--17------15------17------15------------------|
Bb|-----1515----1515----1515----1515--1818-17-15-|
Gb|----------------------------------------------|
Db|----------------------------------------------|
Ab|----------------------------------------------|
Db|----------------------------------------------|

Eb|---------------------------------------------|
Bb|---------------------------------------------|
Gb|---------------------------------------------|
Db|---------------------------------------------|   x2
Ab|---------------------------------------------|
Db|0-10-12-1212-0-10-12-1212-12-101010----------|

Pause: Just bass,vocals and drums

Eb|---------------------------------------------------|
Bb|---------------------------------------------------|
Gb|---------------------------------------------------|
Db|---------------------------------------------------|     x4
Ab|---------------------------------------------------|
Db|-/pickslide-0-10-12-1212-0-10-12-1212-12-1010------|
               x xx xx xxxx x xx xx xxxx xx xxxx
Eb|---------------------------------------------|
Bb|---------------------------------------------|
Gb|---------------------------------------------|
Db|---888888888888888-----10101010101010101010--|
Ab|---888888888888888-----10101010101010101010--|
Db|---888888888888888-----10101010101010101010--|

Eb|--17------15------17------15------15----15-17-|
Bb|-----1515----1515----1515----1515----18-------|
Gb|----------------------------------------------|
Db|----------------------------------------------|
Ab|----------------------------------------------|
Db|----------------------------------------------|

Eb|--17------15------17------15------------------|
Bb|-----1515----1515----1515----1515--1818-17-15-|
Gb|----------------------------------------------|
Db|----------------------------------------------|
Ab|----------------------------------------------|
Db|----------------------------------------------|

Eb|---------------------------------------------|
Bb|---------------------------------------------|
Gb|---------------------------------------------|
Db|-----------------8-----10--------------------|
Ab|-----------------8-----10--------------------|
Db|-12--00--12--0---8-----10--------------------|

Eb|---------------------------------------------|
Bb|---------------------------------------------|
Gb|---------------------------------------------|
Db|---888888888888888-----10101010101010101010--|
Ab|---888888888888888-----10101010101010101010--|
Db|---888888888888888-----10101010101010101010--|

Eb|---------------------------------------------|
Bb|---------------------------------------------|
Gb|---------------------------------------------|
Db|---888888888888888-----10101010101010101010--|
Ab|---888888888888888-----10101010101010101010--|
Db|---888888888888888-----10101010101010101010--|

Clean riff:

Eb|-----------0---------------------------------|
Bb|------3------3-------------------------------|
Gb|----2---2------2--------3---------5----------|
Db|--0-------------------3---3-----5---5--------|    x3
Ab|--------------------1---------3--------------|
Db|---------------------------------------------|

Eb|---------------------------------------------|
Bb|---------------------------------------------|
Gb|---------------------------------------------|
Db|-000---101010101010--888888--101010101010----|    x2
Ab|-000---101010101010--888888--101010101010----|
Db|-000---101010101010--888888--101010101010----|

Eb|--17------15------17------15------15----15-17-|
Bb|-----1515----1515----1515----1515----18-------|
Gb|----------------------------------------------|
Db|----------------------------------------------|
Ab|----------------------------------------------|
Db|----------------------------------------------|

Eb|--17------15------17------15------------------|
Bb|-----1515----1515----1515----1515--1818-17-15-|
Gb|----------------------------------------------|
Db|----------------------------------------------|
Ab|----------------------------------------------|
Db|----------------------------------------------|

Eb|---------------------------------------------|
Bb|---------------------------------------------|
Gb|---------------------------------------------|
Db|---------------------------------------------|
Ab|---------------------------------------------|
Db|0-10-12-1212-0-10-12-1212-12-101010----------|

Eb|---------------------------------------------|
Bb|---------------------------------------------|
Gb|----------------------------------~----------|
Db|----------------------------------0----------|
Ab|----------------------------------0----------|
Db|-0-7-8-88-0-8-10-10101010---------0----------|
Tap to rate this tab
# A B C D E F G H I J K L M N O P Q R S T U V W X Y Z