Song name
# A B C D E F G H I J K L M N O P Q R S T U V W X Y Z

Veer Union - Darker Side Of Me Acoustic tab

The Darker Side Of Me
The Veer Union

Tune:  DADGAE

Intro 4X

e|--------------0------------0--------0--------------------------------------|
A|-------0----0---0--------0---0----0---0------------------------------------|
G|-12h14---14-------14--10-------12------------------------------------------|
D|---------------------------------------------------------------------------|
A|---------------------------------------------------------------------------|
D|---------------------------------------------------------------------------|

e|---------------------------------------------------------------------------|
A|---------------------------------------------------------------------------|
G|---9----5----7-----9----5----7-----9----5----7----2----5-------------------|
D|---7----3----5-----7----3----5-----7----3----5----0----3-------------------|
A|---7----3----5-----7----3----5-----7----3----5----0----3-------------------|
D|---7----3----5-----7----3----5-----7----3----5----0----3-------------------|

Faster strum
e|---------------------------------------------------------------------------|
A|---------------------------------------------------------------------------|
G|---9----5----7-----9----5----7-----9----5----7----2----5-------------------|
D|---7----3----5-----7----3----5-----7----3----5----0----3-------------------|
A|---7----3----5-----7----3----5-----7----3----5----0----3-------------------|
D|---7----3----5-----7----3----5-----7----3----5----0----3-------------------|

Pre-Chorus
e|---------------------------------------------------------------------------|
A|---------------------------------------------------------------------------|
G|---2-2-2-2-2-2-2-2-5-5-5-5-5-7-7-------------------------------------------|
D|---0-0-0-0-0-0-0-0-3-3-3-3-3-5-5-------------------------------------------|
A|---0-0-0-0-0-0-0-0-3-3-3-3-3-5-5-------------------------------------------|
D|---0-0-0-0-0-0-0-0-3-3-3-3-3-5-5-------------------------------------------|

Chorus (full strum)                     walk away
e|----0----0----0----0----0---|-------0-0--0---------------------------------|
A|----0----0----0----0----0---|-------0-0--0---------------------------------|
G|----9----5----2----5----7---|-(2X)--9-9--5(ring out)----------------------|
D|----7----3----0----3----5---|-------7-7--3---------------------------------|
A|----7----3----0----3----5---|-------7-7--3---------------------------------|
D|----7----3----0----3----5---|-------7-7--3---------------------------------|



Verse (1X)

Chorus (2X)

Walk away (full strum - 3X)

e|---0-0--0--0---------------------------------------------------------------|
A|---0-0--0--0---------------------------------------------------------------|
G|---9-9--5--7---------------------------------------------------------------|
D|---7-7--3--5---------------------------------------------------------------|
A|---7-7--3--5---------------------------------------------------------------|
D|---7-7--3--5---------------------------------------------------------------|

Bridge (2X)
e|---0--0--0--0--------------------------------------------------------------|
A|---0--0--0--0--------------------------------------------------------------|
G|---2--5--7--9--------------------------------------------------------------|
D|---0--3--5--7--------------------------------------------------------------|
A|---0--3--5--7--------------------------------------------------------------|
D|---0--3--5--7--------------------------------------------------------------|

e|---0--0--0-----------------------------------------------------------------|
A|---0--0--0-----------------------------------------------------------------|
G|---2--5--7---(pause)-------------------------------------------------------|
D|---0--3--5-----------------------------------------------------------------|
A|---0--3--5-----------------------------------------------------------------|
D|---0--3--5-----------------------------------------------------------------|

Chorus

Bridge
Tap to rate this tab
# A B C D E F G H I J K L M N O P Q R S T U V W X Y Z