Song name
# A B C D E F G H I J K L M N O P Q R S T U V W X Y Z

Veer Union - Darker Side Of Me tab

Intro
e|---------0-----------0-------0---|
A|-----0-----0---0-------0-------0-|
G|-------0-----0-------------------|  (2X)
D|---------------------------------|
A|---7---------------3-------5-----|
D|-7---------------3-------5-------|

e|---------0---------------0----------|
A|-----0-----0---0-----0-----0---0----|
G|-------0-----0---------0-----0------|  
D|------------------------------------|
A|---0---------------3----------------|
D|-0---------------3------------------|

Verse
e|---------0-----------0-------0---|
A|-----0-----0---0-------0-------0-|
G|-------0-----0-------------------|  (3X)
D|---------------------------------|
A|---7---------------3-------5-----|
D|-7---------------3-------5-------|

e|---------0---------------0----------|
A|-----0-----0---0-----0-----0---0----|
G|-------0-----0---------0-----0------|  
D|------------------------------------|
A|---0---------------3----------------|
D|-0---------------3------------------|

e|---------0-----------0-------0---|
A|-----0-----0---0-------0-------0-|
G|-------0-----0-------------------|  (3X)
D|---------------------------------|
A|---7---------------3-------5-----|
D|-7---------------3-------5-------|

e|---------0---------------0----------|
A|-----0-----0---0-----0-----0---0----|
G|-------0-----0---------0-----0------|  
D|------------------------------------|
A|---0---------------3----------------|
D|-0---------------3------------------|

Pre-Chorus
e|--------------------------------------------------------------------------|
A|--------------------------------------------------------------------------|
G|-2-2-2-2-2-2-2-2-5-5-5-5-5-7-7--------------------------------------------|
D|-0-0-0-0-0-0-0-0-3-3-3-3-3-5-5--------------------------------------------|
A|-0-0-0-0-0-0-0-0-3-3-3-3-3-5-5--------------------------------------------|
D|-0-0-0-0-0-0-0-0-3-3-3-3-3-5-5--------------------------------------------|

Chorus (listen to song for strumming pattern)
e|--------------------------------------------------------------------------|
A|--------------------------------------------------------------------------|
G|---2----5----2----5----7----2----5----2----5----7----2----5-(let ring)----|
D|---2----3----0----3----5----2----3----0----3----5----2----3---------------|
A|---0----3----0----3----5----0----3----0----3----5----0----3---------------|
D|--------3----0----3----5---------3----0----3----5---------3---------------|

Verse
e|---------0-----------0-------0---|
A|-----0-----0---0-------0-------0-|
G|-------0-----0-------------------|  (3X)
D|---------------------------------|
A|---7---------------3-------5-----|
D|-7---------------3-------5-------|

e|---------0---------------0----------|
A|-----0-----0---0-----0-----0---0----|
G|-------0-----0---------0-----0------|  
D|------------------------------------|
A|---0---------------3----------------|
D|-0---------------3------------------|

Pre-Chorus
e|--------------------------------------------------------------------------|
A|--------------------------------------------------------------------------|
G|-2-2-2-2-2-2-2-2-5-5-5-5-5-7-7--------------------------------------------|
D|-0-0-0-0-0-0-0-0-3-3-3-3-3-5-5--------------------------------------------|
A|-0-0-0-0-0-0-0-0-3-3-3-3-3-5-5--------------------------------------------|
D|-0-0-0-0-0-0-0-0-3-3-3-3-3-5-5--------------------------------------------|

Chorus
e|--------------------------------------------------------------------------|
A|--------------------------------------------------------------------------|
G|---2----5----2----5----7----2----5----2----5----7-------------------------|
D|---2----3----0----3----5----2----3----0----3----5-------------------------|
A|---0----3----0----3----5----0----3----0----3----5-------------------------|
D|--------3----0----3----5---------3----0----3----5-------------------------|

"Walk away" (3X)
e|--------------------------------------------------------------------------|
A|--------------------------------------------------------------------------|
G|---2-2--5--7--------------------------------------------------------------|
D|---2-2--3--5--------------------------------------------------------------|
A|---0-0--3--5--------------------------------------------------------------|
D|--------3--5--------------------------------------------------------------|
 
Bridge (2X)
e|--------------------------------------------------------------------------|
A|--------------------------------------------------------------------------|
G|---2--5--7--2-------------------------------------------------------------|
D|---0--3--5--2-------------------------------------------------------------|
A|---0--3--5--0-------------------------------------------------------------|
D|---0--3--5----------------------------------------------------------------|
 
e|--------------------------------------------------------------------------|
A|--------------------------------------------------------------------------|
G|---2--5--7---(pause)------------------------------------------------------|
D|---0--3--5----------------------------------------------------------------|
A|---0--3--5----------------------------------------------------------------|
D|---0--3--5----------------------------------------------------------------|
 
Pre-Chorus
e|--------------------------------------------------------------------------|
A|--------------------------------------------------------------------------|
G|-2-2-2-2-2-2-2-2-5-5-5-5-5-7-7--------------------------------------------|
D|-0-0-0-0-0-0-0-0-3-3-3-3-3-5-5--------------------------------------------|
A|-0-0-0-0-0-0-0-0-3-3-3-3-3-5-5--------------------------------------------|
D|-0-0-0-0-0-0-0-0-3-3-3-3-3-5-5--------------------------------------------|

Chorus
e|--------------------------------------------------------------------------|
A|--------------------------------------------------------------------------|
G|---2----5----2----5----7--------------------------------------------------|
D|---2----3----0----3----5--------------------------------------------------|
A|---0----3----0----3----5--------------------------------------------------|
D|--------3----0----3----5--------------------------------------------------|

"Walk away" (3X)
e|--------------------------------------------------------------------------|
A|--------------------------------------------------------------------------|
G|---2-2--5--7--------------------------------------------------------------|
D|---2-2--3--5--------------------------------------------------------------|
A|---0-0--3--5--------------------------------------------------------------|
D|--------3--5--------------------------------------------------------------|

e|--------------------------------------------------------------------------|
A|--------------------------------------------------------------------------|
G|---2--5--7--2--2--5--7--2--2--5--7--2-------------------------------------|
D|---0--3--5--2--0--3--5--2--0--3--5--2-------------------------------------|
A|---0--3--5--0--0--3--5--0--0--3--5--0-------------------------------------|
D|---0--3--5-----0--3--5-----0--3--5----------------------------------------|

Tap to rate this tab
# A B C D E F G H I J K L M N O P Q R S T U V W X Y Z