Song name
# A B C D E F G H I J K L M N O P Q R S T U V W X Y Z

Veer Union - Bitter End tab

The Veer Union: Bitter End

Transcribed by: mysticguitar77

YouTube Username: MysticGuitar77

Date last modified: December 24, 2012

Tuning: Drop C (C,G,C,F,A,D)

Riff 1 (w/ some phaser)
D|-------17----18----18-17-|
A|-15-15----15----15-------|
F|-------------------------|
C|-------------------------|
G|-------------------------|
C|-------------------------|

Play Riff 1 x6

Riff 2
D|-----------------------------------------------------------------|
A|-----------------------------------------------------------------|
F|-----------------3-3-3-3-3-3-3-3-----------------5-5-5-5-5-5-5-5-|
C|-0-0-0-0-0-0-0-0-3-3-3-3-3-3-3-3-5-5-5-5-5-5-5-5-5-5-5-5-5-5-5-5-|
G|-0-0-0-0-0-0-0-0-1-1-1-1-1-1-1-1-5-5-5-5-5-5-5-5-3-3-3-3-3-3-3-3-|
C|-0-0-0-0-0-0-0-0-----------------5-5-5-5-5-5-5-5-----------------|

Play Riff 2 x2
Play Riff 1 x2

Riff 3 (w/ some phaser) "My mind is clear..."
D|-----------------------|
A|-----------------------|
F|-14~---15~---16~---15~-|
C|-----------------------|
G|-----------------------|
C|-----------------------|

Play Riff 3 x2    "I have no fear..."

Riff 4    "'Cause now I know the other side of me..."
D|-----------------------------------------------------------------|
A|-----------------------------------------------------------------|
F|-----------------3-3-3-3-3-3-3-3-----------------3-3-3-3-3-3-3-3-|
C|-0-0-0-0-0-0-0-0-3-3-3-3-3-3-3-3-5-5-5-5-5-5-5-5-3-3-3-3-3-3-3-3-|
G|-0-0-0-0-0-0-0-0-1-1-1-1-1-1-1-1-5-5-5-5-5-5-5-5-1-1-1-1-1-1-1-1-|
C|-0-0-0-0-0-0-0-0-----------------5-5-5-5-5-5-5-5-----------------|
   * * * * * * * * * * * * * * * * * * * * * * * * * * * * * * * *

         "...until I fight 'til the bitter end..."
D|-----------------------------------------------------------------|
A|-----------------------------------------------------------------|
F|-----------------3-3-3-3-3-3-3-3-----------------5-5-5-5-5-5-5-5-|
C|-0-0-0-0-0-0-0-0-3-3-3-3-3-3-3-3-5-5-5-5-5-5-5-5-5-5-5-5-5-5-5-5-|
G|-0-0-0-0-0-0-0-0-1-1-1-1-1-1-1-1-5-5-5-5-5-5-5-5-3-3-3-3-3-3-3-3-|
C|-0-0-0-0-0-0-0-0-----------------5-5-5-5-5-5-5-5-----------------|
   * * * * * * * * * * * * * * * * * * * * * * * * * * * *

Riff 5    "Took a thousand scars to find me..."
D|----------------------|
A|----------------------|
F|-3~------5~-----------|
C|-3~------5~-------x-x-|
G|-1~------3~-------x-x-|
C|------------------x-x-|

Riff 6    "I won't ever surrender like that..."
D|-----------------------------------------------------------------|
A|-----------------------------------------------------------------|
F|-----------------3-3-3-3-3-3-3-3-----------------5-5-5-5-5-5-5-5-|
C|-0-0-0-0-0-0-0-0-3-3-3-3-3-3-3-3-3-3-3-3-3-3-3-3-5-5-5-5-5-5-5-5-|
G|-0-0-0-0-0-0-0-0-1-1-1-1-1-1-1-1-3-3-3-3-3-3-3-3-3-3-3-3-3-3-3-3-|
C|-0-0-0-0-0-0-0-0-----------------3-3-3-3-3-3-3-3-----------------|

Play Riff 6 x2    "I know better, to ever fall back..."
Play Riff 2 x2    "Now I'm alive, I'm feeling born again..."
Play Riff 1 x2
Play Riff 3 x2    "I found my way..."
Play Riff 4 x1    "'Cause now I know the other side of me..."
Play Riff 5 x1    "Took a thousand scars to find me..."
Play Riff 6 x2    "I won't ever surrender like that..."
Play Riff 2 x2    "Now I'm alive, I'm feeling born again..."

Riff 7    "Bitter end!!"
D|------------------------|
A|------------------------|
F|------------------------|
C|-0-0-0-6b7----0-0-0-6b7-|
G|-0-0-0-6b7----0-0-0-6b7-|
C|-0-0-0-6b7----0-0-0-6b7-|
   * * *        * * *

Play Riff 7 x4    "My mind is clear, I have no fear..."
Play Riff 5 x1    "Took a thousand scars to find me..."
                  (played clean and hold the 2nd chord a little longer
                   before the two string chugs before the chorus)
Play Riff 6 x2    "I won't ever surrender like that..."
Play Riff 2 x2    "Now I'm alive, I'm feeling born again..."
Play Riff 6 x2    "I won't ever surrender like that..."
Play Riff 2 x2    "Now I'm alive, I'm feeling born again..."
Play Riff 7 x1    "Until the bitter end!!"

Enjoy!!
                   
Tap to rate this tab
# A B C D E F G H I J K L M N O P Q R S T U V W X Y Z