Song name
# A B C D E F G H I J K L M N O P Q R S T U V W X Y Z

Vega4 - If This Is It tab

----------------------------------------------------------------------------
			     If This Is It - Vega4
----------------------------------------------------------------------------
tabbed by: acoustic-fish
tuning: EADGBe (standard)

i think this is played in drop-D tuning, but i don稚 like alternate tunings, so heres my 
of the song in standard tuning.

intro:
 e|-----------------------------------------------------------------|
 B|-----------------------------------------------------------------|
 G|-----------------------------------------------------------------|
 D|--7-----------7--\3-----------3--/5-------------------------5-5--|
 A|--7-----7-----7--\3-----3-----3--/5-------------------------5-5--|
 E|--5-5-5-5-5-5-5--\1-1-1-1-1-1-1--/3-3-3-3-3-3-3-3-3-3-3-3-3-3-3--|

 e|-----------------------------------------------------------------|
 B|-----------------------------------------------------------------|
 G|-----------------------------------------------------------------|
 D|-/7-----7-----7--\3-----------3--/5------------------------------|
 A|-/7-----7-----7--\3-----3-----3--/5------------------------------|
 E|-/5-5-5-5-5-5-5--\1-1-1-1-1-1-1--/3-3-3-3------------------------|


verse one:
 e|-----------------------------------------------------------------|
 B|-----------------------------------------------------------------|
 G|-----------------------------------------------------------------|
 D|--7-----7-----7--\3-----3-----3--/5-----5-----5--/7-----7-----7--|
 A|--7-----7-----7--\3-----3-----3--/5-----5-----5--/7-----7-----7--|
 E|--5-5-5-5-5-5-5--\1-1-1-1-1-1-1--/3-3-3-3-3-3-3--/5-5-5-5-5-5-5--|
     something       broke           my   elastic    snapped

 e|-----------------------------------------------------------------|
 B|-----------------------------------------------------------------|
 G|-----------------------------------------------------------------|
 D|--7-----------7--\3-----------3--/5-------------------------5-5--|
 A|--7-----7-----7--\3-----3-----3--/5-------------------------5-5--|
 E|--5-5-5-5-5-5-5--\1-1-1-1-1-1-1--/3-3-3-3-3-3-3-3-3-3-3-3-3-3-3--|
 i知 splitting... ...rigging of  my  ribs                      nice

 e|-----------------------------------------------------------------|
 B|-----------------------------------------------------------------|
 G|-----------------------------------------------------------------|
 D|-/7-----7-----7--\3-----3-----3--/5-----5-----5--/7-----7-----7--|
 A|-/7-----7-----7--\3-----3-----3--/5-----5-----5--/7-----7-----7--|
 E|-/5-5-5-5-5-5-5--\1-1-1-1-1-1-1--/3-3-3-3-3-3-3--/5-5-5-5-5-5-5--|
     shirt       nice eyes           they match perfectly

 e|-----------------------------------------------------------------|
 B|-----------------------------------------------------------------|
 G|-----------------------------------------------------------------|
 D|--7-----------7--\3-----------3--/5------------------------------|
 A|--7-----7-----7--\3-----3-----3--/5------------------------------|
 E|--5-5-5-5-5-5-5--\1-1-1-1-1-1-1--/3-3-3-3------------------------|
 but nothing...   ...perfect       today


chorus:
guitar one:
 e|-----------------------------------------------------------------|
 B|-----------------------------------------------------------------|
 G|-----------------------------------------------------------------|
 D|--7-----7---7-----7-7-----7---7-----7-----7---7-----7-----7---7--|
 A|--7-----7---7-----7-7-----7---7-----7-----7---7-----7-----7---7--|
 E|--5-5-5-5-5-5--5--5-5-5-5-5-5-5--5--5-5-5-5-5-5--5--5-5-5-5-5-5--|
guitar two: (piano tabbed for guitar)
 e|-----------------------------------------------------------------|
 B|-----------------------------------------------------------------|
 G|-----------------------------------------------------------------|
 D|--10-9-7-10-------10-9-7-10---------10-9-7-10-------10-9-7-10----|
 A|-----------------------------------------------------------------|
 E|-----------------------------------------------------------------|
 i知 kicking up the  dirt              baby   if   I   burst

guitar one:
 e|-----------------------------------------------------------------|
 B|-----------------------------------------------------------------|
 G|----------------------------------7------------------------------|
 D|-/7-----7-----7--\3-----------3---7------------------------------|
 A|-/7-----7-----7--\3-----3-----3---5-5-5-5------------------------|
 E|-/5-5-5-5-5-5-5--\1-1-1-1-1-1-1----------------------------------|
guitar two: (piano tabbed for guitar)
 e|-----------------------------------------------------------------|
 B|-----------------------------------------------------------------|
 G|-----------------------------------------------------------------|
 D|--10-9----7----5-------------------------------------------------|
 A|------------------7---------------5------------------------------|
 E|--------------------------8--------------------------------------|
     bury    me  and write my epitaph                        if this


bridge:
 e|-----------------------------------------------------------------|
 B|-----------------------------------------------------------------|
 G|-----------------------------------------------------------------|
 D|5/7-----7-------7\3-----3----------------------------------------|
 A|--------------------------------3/5----------------5-------------|
 E|-----------------------------------------------------------------|
is it

 e|-----------------------------------------------------------------|
 B|-----------------------------------------------------------------|
 G|-----------------------------------------------------------------|
 D|5/7-----7-------7\3-----3----------------------------------------|
 A|--------------------------------3/5----------------5-------------|
 E|-----------------------------------------------------------------|


verse two:
 e|-----------------------------------------------------------------|
 B|-----------------------------------------------------------------|
 G|-----------------------------------------------------------------|
 D|--7-----7-----7--\3-----3-----3--/5-----5-----5--/7-----7-----7--|
 A|--7-----7-----7--\3-----3-----3--/5-----5-----5--/7-----7-----7--|
 E|--5-5-5-5-5-5-5--\1-1-1-1-1-1-1--/3-3-3-3-3-3-3--/5-5-5-5-5-5-5--|
  a warm...       ...place       today wont  fix  a  thing

 e|-----------------------------------------------------------------|
 B|-----------------------------------------------------------------|
 G|-----------------------------------------------------------------|
 D|--7-----------7--\3-----------3--/5-----------------------5-5-5--|
 A|--7-----7-----7--\3-----3-----3--/5-----------------------5-5-5--|
 E|--5-5-5-5-5-5-5--\1-1-1-1-1-1-1--/3-3-3-3-3-3-3-3-3-3-3-3-3-3-3--|
   i huffed...    ...blew...      ...down

 e|-----------------------------------------------------------------|
 B|-----------------------------------------------------------------|
 G|-----------------------------------------------------------------|
 D|-/7-----7-----7--\3-----3-----3--/5-----5-----5--/7-----7-----7--|
 A|-/7-----7-----7--\3-----3-----3--/5-----5-----5--/7-----7-----7--|
 E|-/5-5-5-5-5-5-5--\1-1-1-1-1-1-1--/3-3-3-3-3-3-3--/5-5-5-5-5-5-5--|
 i知 underneath  this temporary    disease                      there

 e|-----------------------------------------------------------------|
 B|-----------------------------------------------------------------|
 G|-----------------------------------------------------------------|
 D|--7-----------7--\3-----------3--/5------------------------------|
 A|--7-----7-----7--\3-----3-----3--/5------------------------------|
 E|--5-5-5-5-5-5-5--\1-1-1-1-1-1-1--/3-3-3-3------------------------|
     is no    patron saint of...  ...these


chorus:
guitar one:
 e|-----------------------------------------------------------------|
 B|-----------------------------------------------------------------|
 G|-----------------------------------------------------------------|
 D|--7-----7---7-----7-7-----7---7-----7-----7---7-----7-----7---7--|
 A|--7-----7---7-----7-7-----7---7-----7-----7---7-----7-----7---7--|
 E|--5-5-5-5-5-5--5--5-5-5-5-5-5-5--5--5-5-5-5-5-5--5--5-5-5-5-5-5--|
guitar two: (piano tabbed for guitar)
 e|-----------------------------------------------------------------|
 B|-----------------------------------------------------------------|
 G|-----------------------------------------------------------------|
 D|--10-9-7-10-------10-9-7-10---------10-9-7-10-------10-9-7-10----|
 A|-----------------------------------------------------------------|
 E|-----------------------------------------------------------------|
 i知 kicking up the  dirt              baby   if   I   burst

guitar one:
 e|-----------------------------------------------------------------|
 B|-----------------------------------------------------------------|
 G|----------------------------------7------------------------------|
 D|-/7-----7-----7--\3-----------3---7------------------------------|
 A|-/7-----7-----7--\3-----3-----3---5-5-5-5------------------------|
 E|-/5-5-5-5-5-5-5--\1-1-1-1-1-1-1----------------------------------|
guitar two: (piano tabbed for guitar)
 e|-----------------------------------------------------------------|
 B|-----------------------------------------------------------------|
 G|-----------------------------------------------------------------|
 D|--10-9----7----5-------------------------------------------------|
 A|------------------7---------------5------------------------------|
 E|--------------------------8--------------------------------------|
     bury    me  and write my epitaph                        if this


bridge:
 e|-----------------------------------------------------------------|
 B|-----------------------------------------------------------------|
 G|-----------------------------------------------------------------|
 D|5/7-----7-------7\3-----3----------------------------------------|
 A|--------------------------------3/5----------------5-------------|
 E|-----------------------------------------------------------------|
is it

 e|-----------------------------------------------------------------|
 B|-----------------------------------------------------------------|
 G|-----------------------------------------------------------------|
 D|5/7-----7-------7\3-----3----------------------------------------|
 A|--------------------------------3/5----------------5-------------|
 E|-----------------------------------------------------------------|


outro:
e|-----------------------------------------------------------------|
B|-----------------------------------------------------------------|
G|-----------------------------------------------------------------|
D|--7-----7-----7--\3-----------3--/5------------------------------|
A|--7-----7-----7--\3-----3-----3--/5------------------------------|
E|--5-5-5-5-5-5-5--\1-1-1-1-1-1-1--/3-3-3-3------------------------|
    bury  me    and write     my epitaph


enjoy!


lyrics:
=======
something broke, my elastic snapped
i知 splitting from the rigging of my ribs
nice shirt, nice eyes, they match perfectly
but nothing should be perfect today

i知 kicking up the dirt, baby if i burst
bury me and write my epitaph
if this is it

a warm safe place today wont fix a thing
i huffed and puffed and blew the whole place down
i知 underneath this temporary disease
there is no patron saint of days like these

i知 kicking up the dirt, baby if i burst
bury me and write my epitaph
if this is it

bury me and write my epitaph
============================================================================
| /  slide up
| \  slide down
| h  hammer-on
| p  pull-off
| ~  vibrato
| +  harmonic
| x  Mute note
| ャ  palm mute
============================================================================
Tap to rate this tab
# A B C D E F G H I J K L M N O P Q R S T U V W X Y Z