Song name
# A B C D E F G H I J K L M N O P Q R S T U V W X Y Z

Vegas For Millions - Worst Case Scenario chords

Highlighted       Show chord diagrams
E--0------------------------------------------|
B---------------------------0--------3--------|
G--------------------0--------0----2---2------|
D----------------0/2------0------0------------|
A-0---0-2-3--3--------------------------------|
E-----------------------3---------------------|

E----0----------------------------0-----------|
B----------------------------3--------3-------|
G---------------------0--------2--------------|
D-----------------0/2------0------------------|
A-0----0-2-3--3-------------------------------|
E------------------------3--------------------|

That's the intro, although i can't play it jet. but i copied it from someone else, 
he or she didn't know the chords.
And I'm not sure if they're right, but let's give it a try.

                AM                         C
I wanna Shout it from the rooftop
            G                D
I'm in love I'm in love
                AM                          C
And the favourite thing to do
                         G                               D
Is thinking of you, is thinking of you


and so on.
i hope it's okay?
Tap to rate this tab
# A B C D E F G H I J K L M N O P Q R S T U V W X Y Z