Song name
# A B C D E F G H I J K L M N O P Q R S T U V W X Y Z

Veggie Tales - Rock Monster tab

Here is the intro riff in the begining of the song "Rock Monster".

Now, there are some different ways to do this, like capo 1-3 fret. I'll include 
some other versions beneath this one.

/ slide down
\ slide up

Version 1:
e----------------------------------------------/
B----------------------------------------------/
G----------------------------------------------/
D----------------------------------------------/
A-----------------2-2-2\1----------------------/
E-0-0-0-0-/2-2-2-2-----------------------------/

Version 2:

e----------------------------------------------/
B----------------------------------------------/
G----------------------------------------------/
D----------------------------------------------/
A-----------------2-2-0-1----------------------/
E-0-0-0-0-/2-2-2-2-----------------------------/

Version 3:

e----------------------------------------------/
B----------------------------------------------/
G----------------------------------------------/
D--------------------0-------------------------/
A-----------------2-2-1------------------------/
E-0-0-0-0-/2-2-2-2-----------------------------/

This is my first tab, so please rate!

Caleb
Tap to rate this tab
 
# A B C D E F G H I J K L M N O P Q R S T U V W X Y Z